  0
SECTION
  2
HEADER
  9
$ACADVER
  1
AC1009
  9
$INSBASE
 10
0.0
 20
0.0
 30
0.0
  9
$EXTMIN
 10
0.5
 20
-0.042809
 30
0.0
  9
$EXTMAX
 10
36.310684
 20
17.113241
 30
0.0
  9
$LIMMIN
 10
0.0
 20
0.0
  9
$LIMMAX
 10
12.0
 20
9.0
  9
$ORTHOMODE
 70
     0
  9
$REGENMODE
 70
     1
  9
$FILLMODE
 70
     1
  9
$QTEXTMODE
 70
     0
  9
$MIRRTEXT
 70
     1
  9
$DRAGMODE
 70
     2
  9
$LTSCALE
 40
1.0
  9
$OSMODE
 70
     0
  9
$ATTMODE
 70
     1
  9
$TEXTSIZE
 40
0.2
  9
$TRACEWID
 40
0.05
  9
$TEXTSTYLE
  7
STANDARD
  9
$CLAYER
  8
0
  9
$CELTYPE
  6
BYLAYER
  9
$CECOLOR
 62
   256
  9
$DIMSCALE
 40
1.0
  9
$DIMASZ
 40
0.18
  9
$DIMEXO
 40
0.0625
  9
$DIMDLI
 40
0.38
  9
$DIMRND
 40
0.0
  9
$DIMDLE
 40
0.0
  9
$DIMEXE
 40
0.18
  9
$DIMTP
 40
0.0
  9
$DIMTM
 40
0.0
  9
$DIMTXT
 40
0.18
  9
$DIMCEN
 40
0.09
  9
$DIMTSZ
 40
0.0
  9
$DIMTOL
 70
     0
  9
$DIMLIM
 70
     0
  9
$DIMTIH
 70
     1
  9
$DIMTOH
 70
     1
  9
$DIMSE1
 70
     0
  9
$DIMSE2
 70
     0
  9
$DIMTAD
 70
     0
  9
$DIMZIN
 70
     0
  9
$DIMBLK
  1

  9
$DIMASO
 70
     1
  9
$DIMSHO
 70
     1
  9
$DIMPOST
  1

  9
$DIMAPOST
  1

  9
$DIMALT
 70
     0
  9
$DIMALTD
 70
     2
  9
$DIMALTF
 40
25.4
  9
$DIMLFAC
 40
1.0
  9
$DIMTOFL
 70
     0
  9
$DIMTVP
 40
0.0
  9
$DIMTIX
 70
     0
  9
$DIMSOXD
 70
     0
  9
$DIMSAH
 70
     0
  9
$DIMBLK1
  1

  9
$DIMBLK2
  1

  9
$DIMSTYLE
  2
STANDARD
  9
$DIMCLRD
 70
     0
  9
$DIMCLRE
 70
     0
  9
$DIMCLRT
 70
     0
  9
$DIMTFAC
 40
1.0
  9
$DIMGAP
 40
0.09
  9
$LUNITS
 70
     2
  9
$LUPREC
 70
     4
  9
$SKETCHINC
 40
0.1
  9
$FILLETRAD
 40
0.0
  9
$AUNITS
 70
     0
  9
$AUPREC
 70
     0
  9
$MENU
  1
acad
  9
$ELEVATION
 40
0.0
  9
$PELEVATION
 40
0.0
  9
$THICKNESS
 40
0.0
  9
$LIMCHECK
 70
     0
  9
$BLIPMODE
 70
     1
  9
$CHAMFERA
 40
0.0
  9
$CHAMFERB
 40
0.0
  9
$SKPOLY
 70
     0
  9
$TDCREATE
 40
2452566.601224
  9
$TDUPDATE
 40
2452585.530779
  9
$TDINDWG
 40
0.613289
  9
$TDUSRTIMER
 40
0.613289
  9
$USRTIMER
 70
     1
  9
$ANGBASE
 50
0.0
  9
$ANGDIR
 70
     0
  9
$PDMODE
 70
     0
  9
$PDSIZE
 40
0.0
  9
$PLINEWID
 40
0.0
  9
$COORDS
 70
     1
  9
$SPLFRAME
 70
     0
  9
$SPLINETYPE
 70
     6
  9
$SPLINESEGS
 70
     8
  9
$ATTDIA
 70
     0
  9
$ATTREQ
 70
     1
  9
$HANDLING
 70
     1
  9
$HANDSEED
  5
485
  9
$SURFTAB1
 70
     6
  9
$SURFTAB2
 70
     6
  9
$SURFTYPE
 70
     6
  9
$SURFU
 70
     6
  9
$SURFV
 70
     6
  9
$UCSNAME
  2

  9
$UCSORG
 10
0.0
 20
0.0
 30
0.0
  9
$UCSXDIR
 10
1.0
 20
0.0
 30
0.0
  9
$UCSYDIR
 10
0.0
 20
1.0
 30
0.0
  9
$PUCSNAME
  2

  9
$PUCSORG
 10
0.0
 20
0.0
 30
0.0
  9
$PUCSXDIR
 10
1.0
 20
0.0
 30
0.0
  9
$PUCSYDIR
 10
0.0
 20
1.0
 30
0.0
  9
$USERI1
 70
     0
  9
$USERI2
 70
     0
  9
$USERI3
 70
     0
  9
$USERI4
 70
     0
  9
$USERI5
 70
     0
  9
$USERR1
 40
0.0
  9
$USERR2
 40
0.0
  9
$USERR3
 40
0.0
  9
$USERR4
 40
0.0
  9
$USERR5
 40
0.0
  9
$WORLDVIEW
 70
     1
  9
$SHADEDGE
 70
     3
  9
$SHADEDIF
 70
    70
  9
$TILEMODE
 70
     1
  9
$MAXACTVP
 70
    16
  9
$PLIMCHECK
 70
     0
  9
$PEXTMIN
 10
1.000000E+020
 20
1.000000E+020
 30
1.000000E+020
  9
$PEXTMAX
 10
-1.000000E+020
 20
-1.000000E+020
 30
-1.000000E+020
  9
$PLIMMIN
 10
0.0
 20
0.0
  9
$PLIMMAX
 10
12.0
 20
9.0
  9
$UNITMODE
 70
     0
  9
$VISRETAIN
 70
     0
  9
$PLINEGEN
 70
     0
  9
$PSLTSCALE
 70
     1
  0
ENDSEC
  0
SECTION
  2
TABLES
  0
TABLE
  2
VPORT
 70
     3
  0
VPORT
  2
*ACTIVE
 70
     0
 10
0.0
 20
0.0
 11
1.0
 21
1.0
 12
18.492087
 22
7.737471
 13
0.0
 23
0.0
 14
1.0
 24
1.0
 15
0.0
 25
0.0
 16
0.0
 26
0.0
 36
1.0
 17
0.0
 27
0.0
 37
0.0
 40
21.3564
 41
1.761905
 42
50.0
 43
0.0
 44
0.0
 50
0.0
 51
0.0
 71
     0
 72
   100
 73
     1
 74
     0
 75
     0
 76
     0
 77
     0
 78
     0
  0
ENDTAB
  0
TABLE
  2
LTYPE
 70
    25
  0
LTYPE
  2
CONTINUOUS
 70
     0
  3
Solid line
 72
    65
 73
     0
 40
0.0
  0
LTYPE
  2
BORDER
 70
     0
  3
__ __ . __ __ . __ __ . __ __ . __ __ . __ __ .
 72
    65
 73
     6
 40
1.75
 49
0.5
 49
-0.25
 49
0.5
 49
-0.25
 49
0.0
 49
-0.25
  0
LTYPE
  2
BORDER2
 70
     0
  3
__.__.__.__.__.__.__.__.__.__.__.__.__.__.__.__
 72
    65
 73
     6
 40
0.875
 49
0.25
 49
-0.125
 49
0.25
 49
-0.125
 49
0.0
 49
-0.125
  0
LTYPE
  2
BORDERX2
 70
     0
  3
____  ____  .  ____  ____  .  ____  ____  .  __
 72
    65
 73
     6
 40
3.5
 49
1.0
 49
-0.5
 49
1.0
 49
-0.5
 49
0.0
 49
-0.5
  0
LTYPE
  2
CENTER
 70
     0
  3
____ _ ____ _ ____ _ ____ _ ____ _ ____ _ ____ 
 72
    65
 73
     4
 40
2.0
 49
1.25
 49
-0.25
 49
0.25
 49
-0.25
  0
LTYPE
  2
CENTER2
 70
     0
  3
___ _ ___ _ ___ _ ___ _ ___ _ ___ _ ___ _ ___ _
 72
    65
 73
     4
 40
1.125
 49
0.75
 49
-0.125
 49
0.125
 49
-0.125
  0
LTYPE
  2
CENTERX2
 70
     0
  3
________  __  ________  __  ________  __  _____
 72
    65
 73
     4
 40
4.0
 49
2.5
 49
-0.5
 49
0.5
 49
-0.5
  0
LTYPE
  2
DASHDOT
 70
     0
  3
__ . __ . __ . __ . __ . __ . __ . __ . __ . __
 72
    65
 73
     4
 40
1.0
 49
0.5
 49
-0.25
 49
0.0
 49
-0.25
  0
LTYPE
  2
DASHDOT2
 70
     0
  3
_._._._._._._._._._._._._._._._._._._._._._._._
 72
    65
 73
     4
 40
0.5
 49
0.25
 49
-0.125
 49
0.0
 49
-0.125
  0
LTYPE
  2
DASHDOTX2
 70
     0
  3
____  .  ____  .  ____  .  ____  .  ____  .  __
 72
    65
 73
     4
 40
2.0
 49
1.0
 49
-0.5
 49
0.0
 49
-0.5
  0
LTYPE
  2
DASHED
 70
     0
  3
__ __ __ __ __ __ __ __ __ __ __ __ __ __ __ __
 72
    65
 73
     2
 40
0.75
 49
0.5
 49
-0.25
  0
LTYPE
  2
DASHED2
 70
     0
  3
_ _ _ _ _ _ _ _ _ _ _ _ _ _ _ _ _ _ _ _ _ _ _ _
 72
    65
 73
     2
 40
0.375
 49
0.25
 49
-0.125
  0
LTYPE
  2
DASHEDX2
 70
     0
  3
____  ____  ____  ____  ____  ____  ____  ____ 
 72
    65
 73
     2
 40
1.5
 49
1.0
 49
-0.5
  0
LTYPE
  2
DIVIDE
 70
     0
  3
____ . . ____ . . ____ . . ____ . . ____ . . __
 72
    65
 73
     6
 40
1.25
 49
0.5
 49
-0.25
 49
0.0
 49
-0.25
 49
0.0
 49
-0.25
  0
LTYPE
  2
DIVIDE2
 70
     0
  3
__..__..__..__..__..__..__..__..__..__..__..__.
 72
    65
 73
     6
 40
0.625
 49
0.25
 49
-0.125
 49
0.0
 49
-0.125
 49
0.0
 49
-0.125
  0
LTYPE
  2
DIVIDEX2
 70
     0
  3
________  .  .  ________  .  .  ________  .  . 
 72
    65
 73
     6
 40
2.5
 49
1.0
 49
-0.5
 49
0.0
 49
-0.5
 49
0.0
 49
-0.5
  0
LTYPE
  2
DOT
 70
     0
  3
. . . . . . . . . . . . . . . . . . . . . . . .
 72
    65
 73
     2
 40
0.25
 49
0.0
 49
-0.25
  0
LTYPE
  2
DOT2
 70
     0
  3
...............................................
 72
    65
 73
     2
 40
0.125
 49
0.0
 49
-0.125
  0
LTYPE
  2
DOTX2
 70
     0
  3
.  .  .  .  .  .  .  .  .  .  .  .  .  .  .  . 
 72
    65
 73
     2
 40
0.5
 49
0.0
 49
-0.5
  0
LTYPE
  2
HIDDEN
 70
     0
  3
__ __ __ __ __ __ __ __ __ __ __ __ __ __ __ __
 72
    65
 73
     2
 40
0.375
 49
0.25
 49
-0.125
  0
LTYPE
  2
HIDDEN2
 70
     0
  3
_ _ _ _ _ _ _ _ _ _ _ _ _ _ _ _ _ _ _ _ _ _ _ _
 72
    65
 73
     2
 40
0.1875
 49
0.125
 49
-0.0625
  0
LTYPE
  2
HIDDENX2
 70
     0
  3
____ ____ ____ ____ ____ ____ ____ ____ ____ __
 72
    65
 73
     2
 40
0.75
 49
0.5
 49
-0.25
  0
LTYPE
  2
PHANTOM
 70
     0
  3
______  __  __  ______  __  __  ______  __  __ 
 72
    65
 73
     6
 40
2.5
 49
1.25
 49
-0.25
 49
0.25
 49
-0.25
 49
0.25
 49
-0.25
  0
LTYPE
  2
PHANTOM2
 70
     0
  3
___ _ _ ___ _ _ ___ _ _ ___ _ _ ___ _ _ ___ _ _
 72
    65
 73
     6
 40
1.25
 49
0.625
 49
-0.125
 49
0.125
 49
-0.125
 49
0.125
 49
-0.125
  0
LTYPE
  2
PHANTOMX2
 70
     0
  3
____________    ____    ____    ____________   
 72
    65
 73
     6
 40
5.0
 49
2.5
 49
-0.5
 49
0.5
 49
-0.5
 49
0.5
 49
-0.5
  0
ENDTAB
  0
TABLE
  2
LAYER
 70
     4
  0
LAYER
  2
0
 70
     0
 62
     7
  6
CONTINUOUS
  0
LAYER
  2
HALF
 70
     0
 62
     5
  6
CONTINUOUS
  0
LAYER
  2
THRU
 70
     0
 62
     1
  6
CONTINUOUS
  0
LAYER
  2
LAST
 70
     0
 62
     3
  6
CONTINUOUS
  0
ENDTAB
  0
TABLE
  2
STYLE
 70
     1
  0
STYLE
  2
STANDARD
 70
     0
 40
0.0
 41
1.0
 50
0.0
 71
     0
 42
0.2
  3
txt
  4

  0
ENDTAB
  0
TABLE
  2
VIEW
 70
     0
  0
ENDTAB
  0
TABLE
  2
UCS
 70
     0
  0
ENDTAB
  0
TABLE
  2
APPID
 70
     1
  0
APPID
  2
ACAD
 70
     0
  0
ENDTAB
  0
TABLE
  2
DIMSTYLE
 70
     1
  0
DIMSTYLE
  2
STANDARD
 70
     0
  3

  4

  5

  6

  7

 40
1.0
 41
0.18
 42
0.0625
 43
0.38
 44
0.18
 45
0.0
 46
0.0
 47
0.0
 48
0.0
140
0.18
141
0.09
142
0.0
143
25.4
144
1.0
145
0.0
146
1.0
147
0.09
 71
     0
 72
     0
 73
     1
 74
     1
 75
     0
 76
     0
 77
     0
 78
     0
170
     0
171
     2
172
     0
173
     0
174
     0
175
     0
176
     0
177
     0
178
     0
  0
ENDTAB
  0
ENDSEC
  0
SECTION
  2
BLOCKS
  0
BLOCK
  8
0
  2
$MODEL_SPACE
 70
     0
 10
0.0
 20
0.0
 30
0.0
  3
$MODEL_SPACE
  1

  0
ENDBLK
  5
3C
  8
0
  0
BLOCK
 67
     1
  8
0
  2
$PAPER_SPACE
 70
     0
 10
0.0
 20
0.0
 30
0.0
  3
$PAPER_SPACE
  1

  0
ENDBLK
  5
3A
 67
     1
  8
0
  0
ENDSEC
  0
SECTION
  2
ENTITIES
  0
CIRCLE
  5
3F
  8
0
 10
2.0
 20
2.0
 30
0.0
 40
1.5
  0
ARC
  5
40
  8
0
 10
2.0
 20
2.0
 30
0.0
 40
0.625
 50
25.173553
 51
90.371887
  0
ARC
  5
41
  8
0
 10
2.408976
 20
2.14207
 30
0.0
 40
0.796745
 50
147.884704
 51
190.271548
  0
ARC
  5
42
  8
0
 10
1.5
 20
1.998377
 30
0.0
 40
0.125011
 50
179.256265
 51
0.743735
  0
ARC
  5
43
  8
0
 10
1.85793
 20
2.408976
 30
0.0
 40
0.796745
 50
237.884704
 51
280.271548
  0
ARC
  5
44
  8
0
 10
2.001623
 20
1.5
 30
0.0
 40
0.125011
 50
269.256265
 51
90.743735
  0
ARC
  5
45
  8
0
 10
1.591024
 20
1.85793
 30
0.0
 40
0.796745
 50
327.884704
 51
10.271548
  0
ARC
  5
46
  8
0
 10
2.5
 20
2.001623
 30
0.0
 40
0.125011
 50
359.256265
 51
180.743735
  0
ARC
  5
47
  8
0
 10
2.14207
 20
1.591024
 30
0.0
 40
0.796745
 50
57.884704
 51
100.271548
  0
ARC
  5
48
  8
0
 10
1.998377
 20
2.5
 30
0.0
 40
0.125011
 50
89.256265
 51
270.743735
  0
ARC
  5
49
  8
0
 10
2.0
 20
2.0
 30
0.0
 40
0.625
 50
115.173553
 51
180.371887
  0
ARC
  5
4A
  8
0
 10
2.0
 20
2.0
 30
0.0
 40
0.625
 50
205.173553
 51
270.371887
  0
ARC
  5
4B
  8
0
 10
2.0
 20
2.0
 30
0.0
 40
0.625
 50
295.173553
 51
0.371887
  0
CIRCLE
  5
4C
  8
0
 10
2.0
 20
2.0
 30
0.0
 40
0.125
  0
ARC
  5
4D
  8
0
 10
2.14207
 20
5.591024
 30
0.0
 40
0.796745
 50
57.884704
 51
100.271548
  0
ARC
  5
4E
  8
0
 10
1.85793
 20
6.408976
 30
0.0
 40
0.796745
 50
237.884704
 51
280.271548
  0
ARC
  5
4F
  8
0
 10
2.001623
 20
5.5
 30
0.0
 40
0.125011
 50
269.256265
 51
90.743735
  0
ARC
  5
50
  8
0
 10
1.998377
 20
6.5
 30
0.0
 40
0.125011
 50
89.256265
 51
270.743735
  0
ARC
  5
51
  8
0
 10
2.408976
 20
6.14207
 30
0.0
 40
0.796745
 50
147.884704
 51
190.271548
  0
ARC
  5
52
  8
0
 10
1.5
 20
5.998377
 30
0.0
 40
0.125011
 50
179.256265
 51
0.743735
  0
ARC
  5
53
  8
0
 10
1.591024
 20
5.85793
 30
0.0
 40
0.796745
 50
327.884704
 51
10.271548
  0
ARC
  5
54
  8
0
 10
2.5
 20
6.001623
 30
0.0
 40
0.125011
 50
359.256265
 51
180.743735
  0
ARC
  5
55
  8
0
 10
2.0
 20
6.0
 30
0.0
 40
0.625
 50
90.0
 51
115.173553
  0
ARC
  5
56
  8
0
 10
2.0
 20
6.0
 30
0.0
 40
0.625
 50
180.0
 51
205.173553
  0
ARC
  5
57
  8
0
 10
2.0
 20
6.0
 30
0.0
 40
0.625
 50
270.0
 51
295.173553
  0
ARC
  5
58
  8
0
 10
2.0
 20
6.0
 30
0.0
 40
0.625
 50
0.0
 51
25.173553
  0
LINE
  5
59
  8
0
 10
6.40229
 20
3.397549
 30
0.0
 11
5.0
 21
3.073928
 31
0.0
  0
POLYLINE
  5
5A
  8
0
 66
     1
 10
0.0
 20
0.0
 30
0.0
  0
VERTEX
  5
3F5
  8
0
 10
5.0
 20
0.0
 30
0.0
  0
VERTEX
  5
3F6
  8
0
 10
5.0
 20
3.073928
 30
0.0
  0
SEQEND
  5
3F7
  8
0
  0
POLYLINE
  5
5E
  8
0
 66
     1
 10
0.0
 20
0.0
 30
0.0
  0
VERTEX
  5
3F8
  8
0
 10
5.0
 20
3.520567
 30
0.0
  0
VERTEX
  5
3F9
  8
0
 10
5.0
 20
4.0
 30
0.0
  0
VERTEX
  5
3FA
  8
0
 10
9.0
 20
4.0
 30
0.0
  0
VERTEX
  5
3FB
  8
0
 10
9.0
 20
0.0
 30
0.0
  0
VERTEX
  5
3FC
  8
0
 10
5.0
 20
0.0
 30
0.0
  0
SEQEND
  5
3FD
  8
0
  0
ARC
  5
65
  8
0
 10
7.0
 20
2.0
 30
0.0
 40
1.52
 50
113.155651
 51
359.438086
  0
ARC
  5
66
  8
0
 10
6.705387
 20
2.045984
 30
0.0
 40
1.81556
 50
358.07904
 51
94.091947
  0
LINE
  5
67
  8
0
 10
6.575834
 20
3.856546
 30
0.0
 11
4.996066
 21
3.540177
 31
0.0
  0
POLYLINE
  5
68
  8
0
 66
     1
 10
0.0
 20
0.0
 30
0.0
  0
VERTEX
  5
3FE
  8
0
 10
5.0
 20
7.868007
 30
0.0
  0
VERTEX
  5
3FF
  8
0
 10
5.0
 20
8.347439
 30
0.0
  0
VERTEX
  5
400
  8
0
 10
9.0
 20
8.347439
 30
0.0
  0
VERTEX
  5
401
  8
0
 10
9.0
 20
4.347439
 30
0.0
  0
VERTEX
  5
402
  8
0
 10
5.0
 20
4.347439
 30
0.0
  0
SEQEND
  5
403
  8
0
  0
POLYLINE
  5
6F
  8
0
 66
     1
 10
0.0
 20
0.0
 30
0.0
  0
VERTEX
  5
404
  8
0
 10
5.0
 20
4.347439
 30
0.0
  0
VERTEX
  5
405
  8
0
 10
5.0
 20
7.868007
 30
0.0
  0
SEQEND
  5
406
  8
0
  0
CIRCLE
  5
73
  8
0
 10
7.0
 20
6.347439
 30
0.0
 40
0.247
  0
POLYLINE
  5
74
  8
0
 66
     1
 10
0.0
 20
0.0
 30
0.0
  0
VERTEX
  5
407
  8
0
 10
9.581757
 20
7.868007
 30
0.0
  0
VERTEX
  5
408
  8
0
 10
9.581757
 20
8.347439
 30
0.0
  0
VERTEX
  5
409
  8
0
 10
13.581757
 20
8.347439
 30
0.0
  0
VERTEX
  5
40A
  8
0
 10
13.581757
 20
4.347439
 30
0.0
  0
VERTEX
  5
40B
  8
0
 10
9.581757
 20
4.347439
 30
0.0
  0
SEQEND
  5
40C
  8
0
  0
POLYLINE
  5
7B
  8
0
 66
     1
 10
0.0
 20
0.0
 30
0.0
  0
VERTEX
  5
40D
  8
0
 10
9.581757
 20
4.347439
 30
0.0
  0
VERTEX
  5
40E
  8
0
 10
9.581757
 20
7.868007
 30
0.0
  0
SEQEND
  5
40F
  8
0
  0
CIRCLE
  5
7F
  8
0
 10
11.581757
 20
6.347439
 30
0.0
 40
0.1205
  0
POLYLINE
  5
80
  8
0
 66
     1
 10
0.0
 20
0.0
 30
0.0
  0
VERTEX
  5
410
  8
0
 10
5.0
 20
12.271569
 30
0.0
  0
VERTEX
  5
411
  8
0
 10
5.0
 20
12.751001
 30
0.0
  0
VERTEX
  5
412
  8
0
 10
9.0
 20
12.751001
 30
0.0
  0
VERTEX
  5
413
  8
0
 10
9.0
 20
8.751001
 30
0.0
  0
VERTEX
  5
414
  8
0
 10
5.0
 20
8.751001
 30
0.0
  0
SEQEND
  5
415
  8
0
  0
POLYLINE
  5
87
  8
0
 66
     1
 10
0.0
 20
0.0
 30
0.0
  0
VERTEX
  5
416
  8
0
 10
5.0
 20
8.751001
 30
0.0
  0
VERTEX
  5
417
  8
0
 10
5.0
 20
12.271569
 30
0.0
  0
SEQEND
  5
418
  8
0
  0
POLYLINE
  5
8B
  8
0
 66
     1
 10
0.0
 20
0.0
 30
0.0
  0
VERTEX
  5
419
  8
0
 10
9.581757
 20
8.751001
 30
0.0
  0
VERTEX
  5
41A
  8
0
 10
9.581757
 20
12.271569
 30
0.0
  0
SEQEND
  5
41B
  8
0
  0
POLYLINE
  5
8F
  8
0
 66
     1
 10
0.0
 20
0.0
 30
0.0
  0
VERTEX
  5
41C
  8
0
 10
9.581757
 20
12.271569
 30
0.0
  0
VERTEX
  5
41D
  8
0
 10
9.581757
 20
12.751001
 30
0.0
  0
VERTEX
  5
41E
  8
0
 10
13.581757
 20
12.751001
 30
0.0
  0
VERTEX
  5
41F
  8
0
 10
13.581757
 20
8.751001
 30
0.0
  0
VERTEX
  5
420
  8
0
 10
9.581757
 20
8.751001
 30
0.0
  0
SEQEND
  5
421
  8
0
  0
CIRCLE
  5
96
  8
0
 10
11.581757
 20
10.751001
 30
0.0
 40
0.1205
  0
ARC
  5
97
  8
0
 10
7.0
 20
10.751001
 30
0.0
 40
0.675
 50
104.955648
 51
165.044352
  0
ARC
  5
98
  8
0
 10
7.0
 20
10.751001
 30
0.0
 40
0.5
 50
105.574598
 51
164.425402
  0
ARC
  5
99
  8
0
 10
6.825802
 20
11.313208
 30
0.0
 40
0.089928
 50
296.376223
 51
90.0
  0
ARC
  5
9A
  8
0
 10
7.174198
 20
11.313208
 30
0.0
 40
0.089928
 50
90.0
 51
243.623777
  0
ARC
  5
9B
  8
0
 10
6.437793
 20
10.925199
 30
0.0
 40
0.089928
 50
180.0
 51
333.623777
  0
ARC
  5
9C
  8
0
 10
6.437793
 20
10.576803
 30
0.0
 40
0.089928
 50
26.376223
 51
180.0
  0
ARC
  5
9D
  8
0
 10
6.825802
 20
10.188794
 30
0.0
 40
0.089928
 50
270.0
 51
63.623777
  0
ARC
  5
9E
  8
0
 10
7.174198
 20
10.188794
 30
0.0
 40
0.089928
 50
116.376223
 51
270.0
  0
ARC
  5
9F
  8
0
 10
7.562207
 20
10.576803
 30
0.0
 40
0.089928
 50
0.0
 51
153.623777
  0
ARC
  5
A0
  8
0
 10
7.561422
 20
10.922567
 30
0.0
 40
0.088078
 50
205.068731
 51
13.670623
  0
ARC
  5
A1
  8
0
 10
7.0
 20
10.751001
 30
0.0
 40
0.5
 50
195.574598
 51
254.425402
  0
ARC
  5
A2
  8
0
 10
7.0
 20
10.751001
 30
0.0
 40
0.5
 50
285.574598
 51
344.425402
  0
ARC
  5
A3
  8
0
 10
7.0
 20
10.751001
 30
0.0
 40
0.5
 50
15.574598
 51
74.425402
  0
ARC
  5
A4
  8
0
 10
7.0
 20
10.751001
 30
0.0
 40
0.675
 50
194.955648
 51
255.044352
  0
ARC
  5
A5
  8
0
 10
7.0
 20
10.751001
 30
0.0
 40
0.675
 50
284.955648
 51
345.044352
  0
ARC
  5
A6
  8
0
 10
7.0
 20
10.751001
 30
0.0
 40
0.675
 50
16.559436
 51
75.044352
  0
ARC
  5
A7
  8
0
 10
11.581757
 20
10.751001
 30
0.0
 40
0.675
 50
16.559436
 51
75.044352
  0
ARC
  5
A8
  8
0
 10
11.581757
 20
10.751001
 30
0.0
 40
0.675
 50
104.955648
 51
165.044352
  0
ARC
  5
A9
  8
0
 10
11.581757
 20
10.751001
 30
0.0
 40
0.5
 50
105.574598
 51
164.425402
  0
ARC
  5
AA
  8
0
 10
11.407559
 20
11.313208
 30
0.0
 40
0.089928
 50
296.376223
 51
90.0
  0
ARC
  5
AB
  8
0
 10
11.581757
 20
10.751001
 30
0.0
 40
0.5
 50
15.574598
 51
74.425402
  0
ARC
  5
AC
  8
0
 10
11.755955
 20
11.313208
 30
0.0
 40
0.089928
 50
90.0
 51
243.623777
  0
ARC
  5
AD
  8
0
 10
11.581757
 20
10.751001
 30
0.0
 40
0.675
 50
284.955648
 51
345.044352
  0
ARC
  5
AE
  8
0
 10
12.143179
 20
10.922567
 30
0.0
 40
0.088078
 50
205.068731
 51
13.670623
  0
ARC
  5
AF
  8
0
 10
11.581757
 20
10.751001
 30
0.0
 40
0.5
 50
285.574598
 51
344.425402
  0
ARC
  5
B0
  8
0
 10
12.143964
 20
10.576803
 30
0.0
 40
0.089928
 50
0.0
 51
153.623777
  0
ARC
  5
B1
  8
0
 10
11.581757
 20
10.751001
 30
0.0
 40
0.675
 50
194.955648
 51
255.044352
  0
ARC
  5
B2
  8
0
 10
11.755955
 20
10.188794
 30
0.0
 40
0.089928
 50
116.376223
 51
270.0
  0
ARC
  5
B3
  8
0
 10
11.407559
 20
10.188794
 30
0.0
 40
0.089928
 50
270.0
 51
63.623777
  0
ARC
  5
B4
  8
0
 10
11.581757
 20
10.751001
 30
0.0
 40
0.5
 50
195.574598
 51
254.425402
  0
ARC
  5
B5
  8
0
 10
11.01955
 20
10.925199
 30
0.0
 40
0.089928
 50
180.0
 51
333.623777
  0
ARC
  5
B6
  8
0
 10
11.01955
 20
10.576803
 30
0.0
 40
0.089928
 50
26.376223
 51
180.0
  0
CIRCLE
  5
B7
  8
0
 10
7.0
 20
10.751001
 30
0.0
 40
0.247
  0
CIRCLE
  5
B8
  8
0
 10
11.581757
 20
6.347439
 30
0.0
 40
0.1875
  0
CIRCLE
  5
B9
  8
0
 10
11.581757
 20
10.751001
 30
0.0
 40
0.1875
  0
ARC
  5
BA
  8
0
 10
7.0
 20
2.0
 30
0.0
 40
0.625
 50
25.173553
 51
90.371887
  0
ARC
  5
BB
  8
0
 10
7.14207
 20
1.591024
 30
0.0
 40
0.796745
 50
57.884704
 51
100.271548
  0
CIRCLE
  5
BC
  8
0
 10
7.0
 20
2.0
 30
0.0
 40
1.5
  0
ARC
  5
BD
  8
0
 10
7.0
 20
2.0
 30
0.0
 40
0.625
 50
205.173553
 51
270.371887
  0
ARC
  5
BE
  8
0
 10
6.85793
 20
2.408976
 30
0.0
 40
0.796745
 50
237.884704
 51
280.271548
  0
ARC
  5
BF
  8
0
 10
7.001623
 20
1.5
 30
0.0
 40
0.125011
 50
269.256265
 51
90.743735
  0
ARC
  5
C0
  8
0
 10
7.0
 20
2.0
 30
0.0
 40
0.625
 50
115.173553
 51
180.371887
  0
ARC
  5
C1
  8
0
 10
6.998377
 20
2.5
 30
0.0
 40
0.125011
 50
89.256265
 51
270.743735
  0
ARC
  5
C2
  8
0
 10
7.408976
 20
2.14207
 30
0.0
 40
0.796745
 50
147.884704
 51
190.271548
  0
ARC
  5
C3
  8
0
 10
6.5
 20
1.998377
 30
0.0
 40
0.125011
 50
179.256265
 51
0.743735
  0
ARC
  5
C4
  8
0
 10
7.0
 20
2.0
 30
0.0
 40
0.625
 50
295.173553
 51
0.371887
  0
ARC
  5
C5
  8
0
 10
6.591024
 20
1.85793
 30
0.0
 40
0.796745
 50
327.884704
 51
10.271548
  0
ARC
  5
C6
  8
0
 10
7.5
 20
2.001623
 30
0.0
 40
0.125011
 50
359.256265
 51
180.743735
  0
CIRCLE
  5
C7
  8
0
 10
5.254379
 20
0.254518
 30
0.0
 40
0.1205
  0
CIRCLE
  5
C8
  8
0
 10
5.291629
 20
2.804084
 30
0.0
 40
0.1205
  0
CIRCLE
  5
C9
  8
0
 10
5.273004
 20
3.790412
 30
0.0
 40
0.1205
  0
CIRCLE
  5
CA
  8
0
 10
8.755885
 20
3.781107
 30
0.0
 40
0.1205
  0
CIRCLE
  5
CB
  8
0
 10
8.755885
 20
0.226603
 30
0.0
 40
0.1205
  0
CIRCLE
  5
CC
  8
0
 10
7.0
 20
2.0
 30
0.0
 40
0.1205
  0
CIRCLE
  5
CD
  8
0
 10
2.0
 20
6.0
 30
0.0
 40
0.1205
  0
CIRCLE
  5
CE
  8
0
 10
5.273004
 20
8.137851
 30
0.0
 40
0.1205
  0
CIRCLE
  5
CF
  8
0
 10
8.755885
 20
8.128546
 30
0.0
 40
0.1205
  0
CIRCLE
  5
D0
  8
0
 10
8.755885
 20
4.574042
 30
0.0
 40
0.1205
  0
CIRCLE
  5
D1
  8
0
 10
5.254379
 20
4.601957
 30
0.0
 40
0.1205
  0
CIRCLE
  5
D2
  8
0
 10
5.291629
 20
7.151523
 30
0.0
 40
0.1205
  0
CIRCLE
  5
D3
  8
0
 10
9.854761
 20
8.137851
 30
0.0
 40
0.1205
  0
CIRCLE
  5
D4
  8
0
 10
13.337642
 20
8.128546
 30
0.0
 40
0.1205
  0
CIRCLE
  5
D5
  8
0
 10
13.337642
 20
4.574042
 30
0.0
 40
0.1205
  0
CIRCLE
  5
D6
  8
0
 10
9.836136
 20
4.601957
 30
0.0
 40
0.1205
  0
CIRCLE
  5
D7
  8
0
 10
9.873386
 20
7.151523
 30
0.0
 40
0.1205
  0
CIRCLE
  5
D8
  8
0
 10
9.854761
 20
12.541413
 30
0.0
 40
0.1205
  0
CIRCLE
  5
D9
  8
0
 10
13.337642
 20
12.532108
 30
0.0
 40
0.1205
  0
CIRCLE
  5
DA
  8
0
 10
13.337642
 20
8.977604
 30
0.0
 40
0.1205
  0
CIRCLE
  5
DB
  8
0
 10
9.836136
 20
9.005519
 30
0.0
 40
0.1205
  0
CIRCLE
  5
DC
  8
0
 10
9.873386
 20
11.555085
 30
0.0
 40
0.1205
  0
CIRCLE
  5
DD
  8
0
 10
5.273004
 20
12.541413
 30
0.0
 40
0.1205
  0
CIRCLE
  5
DE
  8
0
 10
8.755885
 20
12.532108
 30
0.0
 40
0.1205
  0
CIRCLE
  5
DF
  8
0
 10
8.755885
 20
8.977604
 30
0.0
 40
0.1205
  0
CIRCLE
  5
E0
  8
0
 10
5.254379
 20
9.005519
 30
0.0
 40
0.1205
  0
CIRCLE
  5
E1
  8
0
 10
5.291629
 20
11.555085
 30
0.0
 40
0.1205
  0
CIRCLE
  5
E2
  8
0
 10
9.830319
 20
3.790412
 30
0.0
 40
0.1205
  0
CIRCLE
  5
E3
  8
0
 10
13.3132
 20
3.781107
 30
0.0
 40
0.1205
  0
CIRCLE
  5
E4
  8
0
 10
13.3132
 20
0.226603
 30
0.0
 40
0.1205
  0
CIRCLE
  5
E5
  8
0
 10
9.811694
 20
0.254518
 30
0.0
 40
0.1205
  0
CIRCLE
  5
E6
  8
0
 10
9.848944
 20
2.804084
 30
0.0
 40
0.1205
  0
POLYLINE
  5
E7
  8
0
 66
     1
 10
0.0
 20
0.0
 30
0.0
  0
VERTEX
  5
422
  8
0
 10
9.557315
 20
3.520567
 30
0.0
  0
VERTEX
  5
423
  8
0
 10
9.557315
 20
4.0
 30
0.0
  0
VERTEX
  5
424
  8
0
 10
13.557315
 20
4.0
 30
0.0
  0
VERTEX
  5
425
  8
0
 10
13.557315
 20
0.0
 30
0.0
  0
VERTEX
  5
426
  8
0
 10
9.557315
 20
0.0
 30
0.0
  0
SEQEND
  5
427
  8
0
  0
POLYLINE
  5
EE
  8
0
 66
     1
 10
0.0
 20
0.0
 30
0.0
  0
VERTEX
  5
428
  8
0
 10
9.557315
 20
0.0
 30
0.0
  0
VERTEX
  5
429
  8
0
 10
9.557315
 20
3.073928
 30
0.0
  0
SEQEND
  5
42A
  8
0
  0
LINE
  5
F2
  8
0
 10
10.959605
 20
3.397549
 30
0.0
 11
9.557315
 21
3.073928
 31
0.0
  0
LINE
  5
F3
  8
0
 10
11.133149
 20
3.856546
 30
0.0
 11
9.553381
 21
3.540177
 31
0.0
  0
ARC
  5
F4
  8
0
 10
11.262702
 20
2.045984
 30
0.0
 40
1.81556
 50
358.07904
 51
94.091947
  0
ARC
  5
F5
  8
0
 10
11.557315
 20
2.0
 30
0.0
 40
1.52
 50
113.155651
 51
359.438086
  0
ARC
  5
F6
  8
0
 10
11.557315
 20
2.0
 30
0.0
 40
0.625
 50
270.0
 51
295.173553
  0
ARC
  5
F7
  8
0
 10
11.699386
 20
1.591024
 30
0.0
 40
0.796745
 50
57.884704
 51
100.271548
  0
CIRCLE
  5
F8
  8
0
 10
11.557315
 20
2.0
 30
0.0
 40
0.1205
  0
ARC
  5
F9
  8
0
 10
11.557315
 20
2.0
 30
0.0
 40
0.625
 50
180.0
 51
205.173553
  0
ARC
  5
FA
  8
0
 10
11.057315
 20
1.998377
 30
0.0
 40
0.125011
 50
179.256265
 51
0.743735
  0
ARC
  5
FB
  8
0
 10
11.415245
 20
2.408976
 30
0.0
 40
0.796745
 50
237.884704
 51
280.271548
  0
ARC
  5
FC
  8
0
 10
11.558938
 20
1.5
 30
0.0
 40
0.125011
 50
269.256265
 51
90.743735
  0
ARC
  5
FD
  8
0
 10
11.557315
 20
2.0
 30
0.0
 40
0.625
 50
90.0
 51
115.173553
  0
ARC
  5
FE
  8
0
 10
11.555693
 20
2.5
 30
0.0
 40
0.125011
 50
89.256265
 51
270.743735
  0
ARC
  5
FF
  8
0
 10
11.966291
 20
2.14207
 30
0.0
 40
0.796745
 50
147.884704
 51
190.271548
  0
ARC
  5
100
  8
0
 10
12.057315
 20
2.001623
 30
0.0
 40
0.125011
 50
359.256265
 51
180.743735
  0
ARC
  5
101
  8
0
 10
11.148339
 20
1.85793
 30
0.0
 40
0.796745
 50
327.884704
 51
10.271548
  0
ARC
  5
102
  8
0
 10
11.557315
 20
2.0
 30
0.0
 40
0.625
 50
0.0
 51
25.173553
  0
CIRCLE
  5
103
  8
0
 10
1.723357
 20
9.082586
 30
0.0
 40
0.1205
  0
CIRCLE
  5
104
  8
0
 10
1.723357
 20
9.082586
 30
0.0
 40
0.19
  0
CIRCLE
  5
105
  8
0
 10
14.616079
 20
0.225318
 30
0.0
 40
0.1205
  0
CIRCLE
  5
106
  8
0
 10
14.653329
 20
2.774884
 30
0.0
 40
0.1205
  0
CIRCLE
  5
107
  8
0
 10
14.634704
 20
3.761212
 30
0.0
 40
0.1205
  0
ARC
  5
108
  8
0
 10
16.3617
 20
1.9708
 30
0.0
 40
0.675
 50
284.955648
 51
345.044352
  0
ARC
  5
109
  8
0
 10
16.3617
 20
1.9708
 30
0.0
 40
0.675
 50
194.955648
 51
255.044352
  0
ARC
  5
10A
  8
0
 10
16.535898
 20
1.408593
 30
0.0
 40
0.089928
 50
116.376223
 51
270.0
  0
ARC
  5
10B
  8
0
 10
16.187501
 20
1.408593
 30
0.0
 40
0.089928
 50
270.0
 51
63.623777
  0
CIRCLE
  5
10C
  8
0
 10
18.117584
 20
0.197403
 30
0.0
 40
0.1205
  0
CIRCLE
  5
10D
  8
0
 10
16.3617
 20
1.9708
 30
0.0
 40
0.247
  0
ARC
  5
10E
  8
0
 10
15.799493
 20
2.144998
 30
0.0
 40
0.089928
 50
180.0
 51
333.623777
  0
ARC
  5
10F
  8
0
 10
15.799493
 20
1.796602
 30
0.0
 40
0.089928
 50
26.376223
 51
180.0
  0
ARC
  5
110
  8
0
 10
16.3617
 20
1.9708
 30
0.0
 40
0.5
 50
195.574598
 51
254.425402
  0
ARC
  5
111
  8
0
 10
16.3617
 20
1.9708
 30
0.0
 40
0.675
 50
104.955648
 51
165.044352
  0
ARC
  5
112
  8
0
 10
16.3617
 20
1.9708
 30
0.0
 40
0.5
 50
105.574598
 51
164.425402
  0
ARC
  5
113
  8
0
 10
16.187501
 20
2.533007
 30
0.0
 40
0.089928
 50
296.376223
 51
90.0
  0
ARC
  5
114
  8
0
 10
16.923121
 20
2.142365
 30
0.0
 40
0.088078
 50
205.068731
 51
13.670623
  0
ARC
  5
115
  8
0
 10
16.3617
 20
1.9708
 30
0.0
 40
0.5
 50
285.574598
 51
344.425402
  0
ARC
  5
116
  8
0
 10
16.923907
 20
1.796602
 30
0.0
 40
0.089928
 50
0.0
 51
153.623777
  0
ARC
  5
117
  8
0
 10
16.3617
 20
1.9708
 30
0.0
 40
0.675
 50
16.559436
 51
75.044352
  0
ARC
  5
118
  8
0
 10
16.3617
 20
1.9708
 30
0.0
 40
0.5
 50
15.574598
 51
74.425402
  0
ARC
  5
119
  8
0
 10
16.535898
 20
2.533007
 30
0.0
 40
0.089928
 50
90.0
 51
243.623777
  0
CIRCLE
  5
11A
  8
0
 10
18.117584
 20
3.751907
 30
0.0
 40
0.1205
  0
ARC
  5
11B
  8
0
 10
16.336741
 20
4.217366
 30
0.0
 40
1.279814
 50
191.107942
 51
349.512303
  0
ARC
  5
11C
  8
0
 10
14.524247
 20
1.611093
 30
0.0
 40
0.935322
 50
259.99186
 51
100.00814
  0
ARC
  5
11D
  8
0
 10
16.386658
 20
-0.275766
 30
0.0
 40
1.279814
 50
11.107942
 51
169.512303
  0
ARC
  5
11E
  8
0
 10
18.608266
 20
1.995758
 30
0.0
 40
1.279814
 50
101.107942
 51
259.512303
  0
POLYLINE
  5
11F
  8
0
 66
     1
 10
0.0
 20
0.0
 30
0.0
  0
VERTEX
  5
42B
  8
0
 10
15.13082
 20
-0.0292
 30
0.0
  0
VERTEX
  5
42C
  8
0
 10
14.3617
 20
-0.0292
 30
0.0
  0
SEQEND
  5
42D
  8
0
  0
POLYLINE
  5
123
  8
0
 66
     1
 10
0.0
 20
0.0
 30
0.0
  0
VERTEX
  5
42E
  8
0
 10
18.3617
 20
0.73992
 30
0.0
  0
VERTEX
  5
42F
  8
0
 10
18.3617
 20
-0.0292
 30
0.0
  0
VERTEX
  5
430
  8
0
 10
17.642496
 20
-0.0292
 30
0.0
  0
SEQEND
  5
431
  8
0
  0
POLYLINE
  5
128
  8
0
 66
     1
 10
0.0
 20
0.0
 30
0.0
  0
VERTEX
  5
432
  8
0
 10
14.3617
 20
3.491367
 30
0.0
  0
VERTEX
  5
433
  8
0
 10
14.3617
 20
3.9708
 30
0.0
  0
VERTEX
  5
434
  8
0
 10
15.080903
 20
3.9708
 30
0.0
  0
SEQEND
  5
435
  8
0
  0
POLYLINE
  5
12D
  8
0
 66
     1
 10
0.0
 20
0.0
 30
0.0
  0
VERTEX
  5
436
  8
0
 10
17.592579
 20
3.9708
 30
0.0
  0
VERTEX
  5
437
  8
0
 10
18.3617
 20
3.9708
 30
0.0
  0
VERTEX
  5
438
  8
0
 10
18.3617
 20
3.251596
 30
0.0
  0
SEQEND
  5
439
  8
0
  0
POLYLINE
  5
132
  8
0
 66
     1
 10
0.0
 20
0.0
 30
0.0
  0
VERTEX
  5
43A
  8
0
 10
14.3617
 20
-0.0292
 30
0.0
  0
VERTEX
  5
43B
  8
0
 10
14.3617
 20
0.690004
 30
0.0
  0
SEQEND
  5
43C
  8
0
  0
POLYLINE
  5
136
  8
0
 66
     1
 10
0.0
 20
0.0
 30
0.0
  0
VERTEX
  5
43D
  8
0
 10
14.3617
 20
2.532182
 30
0.0
  0
VERTEX
  5
43E
  8
0
 10
14.3617
 20
3.491367
 30
0.0
  0
SEQEND
  5
43F
  8
0
  0
ARC
  5
13A
  8
0
 10
16.172253
 20
6.347439
 30
0.0
 40
1.52
 50
111.816907
 51
90.0
  0
POLYLINE
  5
13B
  8
0
 66
     1
 10
0.0
 20
0.0
 30
0.0
  0
VERTEX
  5
440
  8
0
 10
14.172253
 20
4.347439
 30
0.0
  0
VERTEX
  5
441
  8
0
 10
14.172253
 20
7.868007
 30
0.0
  0
SEQEND
  5
442
  8
0
  0
POLYLINE
  5
13F
  8
0
 66
     1
 10
0.0
 20
0.0
 30
0.0
  0
VERTEX
  5
443
  8
0
 10
14.172253
 20
7.868007
 30
0.0
  0
VERTEX
  5
444
  8
0
 10
14.172253
 20
8.347439
 30
0.0
  0
VERTEX
  5
445
  8
0
 10
18.172253
 20
8.347439
 30
0.0
  0
VERTEX
  5
446
  8
0
 10
18.172253
 20
4.347439
 30
0.0
  0
VERTEX
  5
447
  8
0
 10
14.172253
 20
4.347439
 30
0.0
  0
SEQEND
  5
448
  8
0
  0
CIRCLE
  5
146
  8
0
 10
14.426632
 20
4.601957
 30
0.0
 40
0.1205
  0
CIRCLE
  5
147
  8
0
 10
17.928138
 20
4.574042
 30
0.0
 40
0.1205
  0
CIRCLE
  5
148
  8
0
 10
14.463882
 20
7.151523
 30
0.0
 40
0.1205
  0
CIRCLE
  5
149
  8
0
 10
14.445257
 20
8.137851
 30
0.0
 40
0.1205
  0
CIRCLE
  5
14A
  8
0
 10
17.928138
 20
8.128546
 30
0.0
 40
0.1205
  0
ARC
  5
14B
  8
0
 10
14.730178
 20
7.674228
 30
0.0
 40
0.219
 50
61.914314
 51
22.651784
  0
LINE
  5
14C
  8
0
 10
16.172253
 20
7.867439
 30
0.0
 11
14.833281
 21
7.867439
 31
0.0
  0
LINE
  5
14D
  8
0
 10
15.607358
 20
7.758571
 30
0.0
 11
14.932285
 21
7.758571
 31
0.0
  0
POLYLINE
  5
14E
  8
0
 66
     1
 10
0.0
 20
0.0
 30
0.0
  0
VERTEX
  5
449
  8
0
 10
18.545894
 20
7.868007
 30
0.0
  0
VERTEX
  5
44A
  8
0
 10
18.545894
 20
8.347439
 30
0.0
  0
VERTEX
  5
44B
  8
0
 10
22.545894
 20
8.347439
 30
0.0
  0
VERTEX
  5
44C
  8
0
 10
22.545894
 20
4.347439
 30
0.0
  0
VERTEX
  5
44D
  8
0
 10
18.545894
 20
4.347439
 30
0.0
  0
SEQEND
  5
44E
  8
0
  0
POLYLINE
  5
155
  8
0
 66
     1
 10
0.0
 20
0.0
 30
0.0
  0
VERTEX
  5
44F
  8
0
 10
18.545894
 20
4.347439
 30
0.0
  0
VERTEX
  5
450
  8
0
 10
18.545894
 20
7.868007
 30
0.0
  0
SEQEND
  5
451
  8
0
  0
CIRCLE
  5
159
  8
0
 10
18.800273
 20
4.601957
 30
0.0
 40
0.1205
  0
CIRCLE
  5
15A
  8
0
 10
22.301778
 20
4.574042
 30
0.0
 40
0.1205
  0
CIRCLE
  5
15B
  8
0
 10
18.837523
 20
7.151523
 30
0.0
 40
0.1205
  0
CIRCLE
  5
15C
  8
0
 10
18.818898
 20
8.137851
 30
0.0
 40
0.1205
  0
CIRCLE
  5
15D
  8
0
 10
22.301778
 20
8.128546
 30
0.0
 40
0.1205
  0
CIRCLE
  5
15E
  8
0
 10
20.545894
 20
6.347439
 30
0.0
 40
1.52
  0
CIRCLE
  5
15F
  8
0
 10
19.103819
 20
7.674228
 30
0.0
 40
0.219
  0
CIRCLE
  5
160
  8
0
 10
10.139682
 20
7.674228
 30
0.0
 40
0.219
  0
CIRCLE
  5
161
  8
0
 10
5.557925
 20
7.674228
 30
0.0
 40
0.219
  0
ARC
  5
162
  8
0
 10
16.172253
 20
6.347439
 30
0.0
 40
0.625
 50
179.628113
 51
244.826447
  0
ARC
  5
163
  8
0
 10
16.030183
 20
5.938463
 30
0.0
 40
0.796745
 50
79.728452
 51
122.115296
  0
ARC
  5
164
  8
0
 10
16.581229
 20
6.205369
 30
0.0
 40
0.796745
 50
169.728452
 51
212.115296
  0
ARC
  5
165
  8
0
 10
16.172253
 20
6.347439
 30
0.0
 40
0.625
 50
89.628113
 51
154.826447
  0
CIRCLE
  5
166
  8
0
 10
16.172253
 20
6.347439
 30
0.0
 40
1.5
  0
ARC
  5
167
  8
0
 10
16.172253
 20
6.347439
 30
0.0
 40
0.625
 50
359.628113
 51
64.826447
  0
ARC
  5
168
  8
0
 10
16.672253
 20
6.345817
 30
0.0
 40
0.125011
 50
179.256265
 51
0.743735
  0
ARC
  5
169
  8
0
 10
16.172253
 20
6.347439
 30
0.0
 40
0.625
 50
269.628113
 51
334.826447
  0
ARC
  5
16A
  8
0
 10
16.314324
 20
6.756415
 30
0.0
 40
0.796745
 50
259.728452
 51
302.115296
  0
ARC
  5
16B
  8
0
 10
15.672253
 20
6.349062
 30
0.0
 40
0.125011
 50
359.256265
 51
180.743735
  0
ARC
  5
16C
  8
0
 10
15.763277
 20
6.48951
 30
0.0
 40
0.796745
 50
349.728452
 51
32.115296
  0
ARC
  5
16D
  8
0
 10
16.170631
 20
5.847439
 30
0.0
 40
0.125011
 50
89.256265
 51
270.743735
  0
CIRCLE
  5
16E
  8
0
 10
16.172253
 20
6.347439
 30
0.0
 40
0.125
  0
ARC
  5
16F
  8
0
 10
16.173876
 20
6.847439
 30
0.0
 40
0.125011
 50
269.256265
 51
90.743735
  0
ARC
  5
170
  8
0
 10
20.136918
 20
6.48951
 30
0.0
 40
0.796745
 50
349.728452
 51
32.115296
  0
ARC
  5
171
  8
0
 10
20.403823
 20
5.938463
 30
0.0
 40
0.796745
 50
79.728452
 51
122.115296
  0
ARC
  5
172
  8
0
 10
20.045894
 20
6.349062
 30
0.0
 40
0.125011
 50
359.256265
 51
180.743735
  0
ARC
  5
173
  8
0
 10
21.045894
 20
6.345817
 30
0.0
 40
0.125011
 50
179.256265
 51
0.743735
  0
ARC
  5
174
  8
0
 10
20.687964
 20
6.756415
 30
0.0
 40
0.796745
 50
259.728452
 51
302.115296
  0
ARC
  5
175
  8
0
 10
20.545894
 20
6.347439
 30
0.0
 40
0.625
 50
334.826447
 51
360.0
  0
ARC
  5
176
  8
0
 10
20.95487
 20
6.205369
 30
0.0
 40
0.796745
 50
169.728452
 51
212.115296
  0
ARC
  5
177
  8
0
 10
20.545894
 20
6.347439
 30
0.0
 40
0.625
 50
244.826447
 51
270.0
  0
ARC
  5
178
  8
0
 10
20.544271
 20
5.847439
 30
0.0
 40
0.125011
 50
89.256265
 51
270.743735
  0
CIRCLE
  5
179
  8
0
 10
20.545894
 20
6.347439
 30
0.0
 40
0.1205
  0
ARC
  5
17A
  8
0
 10
20.545894
 20
6.347439
 30
0.0
 40
0.625
 50
154.826447
 51
180.0
  0
ARC
  5
17B
  8
0
 10
20.547517
 20
6.847439
 30
0.0
 40
0.125011
 50
269.256265
 51
90.743735
  0
ARC
  5
17C
  8
0
 10
20.545894
 20
6.347439
 30
0.0
 40
0.625
 50
64.826447
 51
90.0
  0
CIRCLE
  5
17D
  8
0
 10
14.919624
 20
3.297588
 30
0.0
 40
0.219
  0
CIRCLE
  5
17E
  8
0
 10
16.172253
 20
10.749989
 30
0.0
 40
0.125
  0
ARC
  5
17F
  8
0
 10
15.763277
 20
10.892059
 30
0.0
 40
0.796745
 50
349.728452
 51
32.115296
  0
ARC
  5
180
  8
0
 10
15.672253
 20
10.751611
 30
0.0
 40
0.125011
 50
359.256265
 51
180.743735
  0
ARC
  5
181
  8
0
 10
16.672253
 20
10.748366
 30
0.0
 40
0.125011
 50
179.256265
 51
0.743735
  0
ARC
  5
182
  8
0
 10
16.172253
 20
10.749989
 30
0.0
 40
0.625
 50
359.628113
 51
64.826447
  0
CIRCLE
  5
183
  8
0
 10
16.172253
 20
10.749989
 30
0.0
 40
1.5
  0
POLYLINE
  5
184
  8
0
 66
     1
 10
0.0
 20
0.0
 30
0.0
  0
VERTEX
  5
452
  8
0
 10
14.172253
 20
12.270556
 30
0.0
  0
VERTEX
  5
453
  8
0
 10
14.172253
 20
12.749989
 30
0.0
  0
VERTEX
  5
454
  8
0
 10
18.172253
 20
12.749989
 30
0.0
  0
VERTEX
  5
455
  8
0
 10
18.172253
 20
8.749989
 30
0.0
  0
VERTEX
  5
456
  8
0
 10
14.172253
 20
8.749989
 30
0.0
  0
SEQEND
  5
457
  8
0
  0
POLYLINE
  5
18B
  8
0
 66
     1
 10
0.0
 20
0.0
 30
0.0
  0
VERTEX
  5
458
  8
0
 10
14.172253
 20
8.749989
 30
0.0
  0
VERTEX
  5
459
  8
0
 10
14.172253
 20
12.270556
 30
0.0
  0
SEQEND
  5
45A
  8
0
  0
ARC
  5
18F
  8
0
 10
16.172253
 20
10.749989
 30
0.0
 40
1.52
 50
99.304825
 51
90.0
  0
CIRCLE
  5
190
  8
0
 10
14.426632
 20
9.004507
 30
0.0
 40
0.1205
  0
ARC
  5
191
  8
0
 10
16.314324
 20
11.158964
 30
0.0
 40
0.796745
 50
259.728452
 51
302.115296
  0
ARC
  5
192
  8
0
 10
16.172253
 20
10.749989
 30
0.0
 40
0.625
 50
269.628113
 51
334.826447
  0
ARC
  5
193
  8
0
 10
16.172253
 20
10.749989
 30
0.0
 40
0.625
 50
179.628113
 51
244.826447
  0
ARC
  5
194
  8
0
 10
16.170631
 20
10.249989
 30
0.0
 40
0.125011
 50
89.256265
 51
270.743735
  0
ARC
  5
195
  8
0
 10
16.581229
 20
10.607918
 30
0.0
 40
0.796745
 50
169.728452
 51
212.115296
  0
CIRCLE
  5
196
  8
0
 10
17.928138
 20
8.976592
 30
0.0
 40
0.1205
  0
ARC
  5
197
  8
0
 10
14.730178
 20
12.076777
 30
0.0
 40
0.219
 50
61.914314
 51
22.651784
  0
CIRCLE
  5
198
  8
0
 10
14.463882
 20
11.554072
 30
0.0
 40
0.1205
  0
CIRCLE
  5
199
  8
0
 10
14.445257
 20
12.5404
 30
0.0
 40
0.1205
  0
ARC
  5
19A
  8
0
 10
16.172253
 20
10.749989
 30
0.0
 40
0.625
 50
89.628113
 51
154.826447
  0
ARC
  5
19B
  8
0
 10
16.030183
 20
10.341013
 30
0.0
 40
0.796745
 50
79.728452
 51
122.115296
  0
ARC
  5
19C
  8
0
 10
16.173876
 20
11.249989
 30
0.0
 40
0.125011
 50
269.256265
 51
90.743735
  0
LINE
  5
19D
  8
0
 10
16.172253
 20
12.269989
 30
0.0
 11
14.833281
 21
12.269989
 31
0.0
  0
CIRCLE
  5
19E
  8
0
 10
17.928138
 20
12.531095
 30
0.0
 40
0.1205
  0
LINE
  5
19F
  8
0
 10
15.926489
 20
12.249989
 30
0.0
 11
14.932285
 21
12.16112
 31
0.0
  0
POLYLINE
  5
1A0
  8
0
 66
     1
 10
0.0
 20
0.0
 30
0.0
  0
VERTEX
  5
45B
  8
0
 10
18.538805
 20
12.26599
 30
0.0
  0
VERTEX
  5
45C
  8
0
 10
18.538805
 20
12.745422
 30
0.0
  0
VERTEX
  5
45D
  8
0
 10
22.538805
 20
12.745422
 30
0.0
  0
VERTEX
  5
45E
  8
0
 10
22.538805
 20
8.745422
 30
0.0
  0
VERTEX
  5
45F
  8
0
 10
18.538805
 20
8.745422
 30
0.0
  0
SEQEND
  5
460
  8
0
  0
POLYLINE
  5
1A7
  8
0
 66
     1
 10
0.0
 20
0.0
 30
0.0
  0
VERTEX
  5
461
  8
0
 10
18.538805
 20
8.745422
 30
0.0
  0
VERTEX
  5
462
  8
0
 10
18.538805
 20
12.26599
 30
0.0
  0
SEQEND
  5
463
  8
0
  0
CIRCLE
  5
1AB
  8
0
 10
18.793184
 20
8.999941
 30
0.0
 40
0.1205
  0
CIRCLE
  5
1AC
  8
0
 10
18.830434
 20
11.549506
 30
0.0
 40
0.1205
  0
CIRCLE
  5
1AD
  8
0
 10
19.09673
 20
12.072211
 30
0.0
 40
0.219
  0
CIRCLE
  5
1AE
  8
0
 10
18.811809
 20
12.535834
 30
0.0
 40
0.1205
  0
CIRCLE
  5
1AF
  8
0
 10
20.538805
 20
10.745422
 30
0.0
 40
0.1875
  0
CIRCLE
  5
1B0
  8
0
 10
20.538805
 20
10.745422
 30
0.0
 40
0.1205
  0
CIRCLE
  5
1B1
  8
0
 10
22.29469
 20
8.972026
 30
0.0
 40
0.1205
  0
CIRCLE
  5
1B2
  8
0
 10
22.29469
 20
12.526529
 30
0.0
 40
0.1205
  0
CIRCLE
  5
1B3
  8
0
 10
20.538805
 20
10.745422
 30
0.0
 40
0.247
  0
LINE
  5
1B4
  8
0
 10
18.538805
 20
12.745422
 30
0.0
 11
22.538805
 21
8.745422
 31
0.0
  0
LINE
  5
1B5
  8
0
 10
22.538805
 20
12.745422
 30
0.0
 11
18.538805
 21
8.745422
 31
0.0
  0
CIRCLE
  5
1B6
  8
0
 10
20.538805
 20
10.745422
 30
0.0
 40
0.375
  0
CIRCLE
  5
1B7
  8
0
 10
19.74331
 20
9.949927
 30
0.0
 40
0.75
  0
CIRCLE
  5
1B8
  8
0
 10
19.74331
 20
9.949927
 30
0.0
 40
0.7
  0
CIRCLE
  5
1B9
  8
0
 10
19.74331
 20
9.949927
 30
0.0
 40
0.8
  0
CIRCLE
  5
1BA
  8
0
 10
20.538805
 20
10.745422
 30
0.0
 40
0.325
  0
CIRCLE
  5
1BB
  8
0
 10
20.538805
 20
10.745422
 30
0.0
 40
0.425
  0
LINE
  5
1BC
  8
0
 10
20.296829
 20
10.527523
 30
0.0
 11
20.28048
 21
10.527168
 31
0.0
  0
LINE
  5
1BD
  8
0
 10
20.28048
 20
10.527168
 30
0.0
 11
20.193832
 21
10.485679
 31
0.0
  0
LINE
  5
1BE
  8
0
 10
20.320905
 20
10.503447
 30
0.0
 11
20.32055
 21
10.487097
 31
0.0
  0
LINE
  5
1BF
  8
0
 10
20.32055
 20
10.487097
 30
0.0
 11
20.279061
 21
10.40045
 31
0.0
  0
LINE
  5
1C0
  8
0
 10
20.25362
 20
10.436162
 30
0.0
 11
20.26997
 21
10.436517
 31
0.0
  0
LINE
  5
1C1
  8
0
 10
20.26997
 20
10.436517
 30
0.0
 11
20.356618
 21
10.478006
 31
0.0
  0
LINE
  5
1C2
  8
0
 10
20.229545
 20
10.460238
 30
0.0
 11
20.2299
 21
10.476587
 31
0.0
  0
LINE
  5
1C3
  8
0
 10
20.2299
 20
10.476587
 30
0.0
 11
20.271388
 21
10.563235
 31
0.0
  0
LINE
  5
1C4
  8
0
 10
20.229545
 20
10.460238
 30
0.0
 11
20.25362
 21
10.436162
 31
0.0
  0
LINE
  5
1C5
  8
0
 10
20.390217
 20
10.363825
 30
0.0
 11
20.386686
 21
10.459829
 31
0.0
  0
LINE
  5
1C6
  8
0
 10
20.3975
 20
10.349184
 30
0.0
 11
20.390217
 21
10.363825
 31
0.0
  0
LINE
  5
1C7
  8
0
 10
20.3975
 20
10.349184
 30
0.0
 11
20.430007
 21
10.339054
 31
0.0
  0
LINE
  5
1C8
  8
0
 10
20.430007
 20
10.339054
 30
0.0
 11
20.444319
 21
10.346966
 31
0.0
  0
LINE
  5
1C9
  8
0
 10
20.444319
 20
10.346966
 30
0.0
 11
20.501761
 21
10.42397
 31
0.0
  0
LINE
  5
1CA
  8
0
 10
20.584574
 20
10.338482
 30
0.0
 11
20.536832
 21
10.421849
 31
0.0
  0
LINE
  5
1CB
  8
0
 10
20.597828
 20
10.328903
 30
0.0
 11
20.584574
 21
10.338482
 31
0.0
  0
LINE
  5
1CC
  8
0
 10
20.597828
 20
10.328903
 30
0.0
 11
20.631318
 21
10.33504
 31
0.0
  0
LINE
  5
1CD
  8
0
 10
20.631318
 20
10.33504
 30
0.0
 11
20.640313
 21
10.348697
 31
0.0
  0
LINE
  5
1CE
  8
0
 10
20.640313
 20
10.348697
 30
0.0
 11
20.65539
 21
10.443575
 31
0.0
  0
LINE
  5
1CF
  8
0
 10
20.768446
 20
10.406365
 30
0.0
 11
20.687431
 21
10.457995
 31
0.0
  0
LINE
  5
1D0
  8
0
 10
20.784633
 20
10.404042
 30
0.0
 11
20.768446
 21
10.406365
 31
0.0
  0
LINE
  5
1D1
  8
0
 10
20.784633
 20
10.404042
 30
0.0
 11
20.811435
 21
10.42504
 31
0.0
  0
LINE
  5
1D2
  8
0
 10
20.811435
 20
10.42504
 30
0.0
 11
20.813054
 21
10.441313
 31
0.0
  0
LINE
  5
1D3
  8
0
 10
20.813054
 20
10.441313
 30
0.0
 11
20.782312
 21
10.53233
 31
0.0
  0
LINE
  5
1D4
  8
0
 10
20.89971
 20
10.551921
 30
0.0
 11
20.803981
 21
10.559988
 31
0.0
  0
LINE
  5
1D5
  8
0
 10
20.915123
 20
10.557387
 30
0.0
 11
20.89971
 21
10.551921
 31
0.0
  0
LINE
  5
1D6
  8
0
 10
20.915123
 20
10.557387
 30
0.0
 11
20.929096
 21
10.588435
 31
0.0
  0
LINE
  5
1D7
  8
0
 10
20.929096
 20
10.588435
 30
0.0
 11
20.922967
 21
10.603597
 31
0.0
  0
LINE
  5
1D8
  8
0
 10
20.922967
 20
10.603597
 30
0.0
 11
20.853449
 21
10.669902
 31
0.0
  0
LINE
  5
1D9
  8
0
 10
20.948295
 20
10.741806
 30
0.0
 11
20.859782
 21
10.704462
 31
0.0
  0
LINE
  5
1DA
  8
0
 10
20.959402
 20
10.753809
 30
0.0
 11
20.948295
 21
10.741806
 31
0.0
  0
LINE
  5
1DB
  8
0
 10
20.959402
 20
10.753809
 30
0.0
 11
20.957346
 21
10.787795
 31
0.0
  0
LINE
  5
1DC
  8
0
 10
20.957346
 20
10.787795
 30
0.0
 11
20.944873
 21
10.798371
 31
0.0
  0
LINE
  5
1DD
  8
0
 10
20.944873
 20
10.798371
 30
0.0
 11
20.852504
 21
10.824774
 31
0.0
  0
LINE
  5
1DE
  8
0
 10
20.903071
 20
10.93252
 30
0.0
 11
20.842051
 21
10.858319
 31
0.0
  0
LINE
  5
1DF
  8
0
 10
20.907328
 20
10.948309
 30
0.0
 11
20.903071
 21
10.93252
 31
0.0
  0
LINE
  5
1E0
  8
0
 10
20.907328
 20
10.948309
 30
0.0
 11
20.889714
 21
10.977447
 31
0.0
  0
LINE
  5
1E1
  8
0
 10
20.889714
 20
10.977447
 30
0.0
 11
20.873754
 21
10.981015
 31
0.0
  0
LINE
  5
1E2
  8
0
 10
20.873754
 20
10.981015
 30
0.0
 11
20.779696
 21
10.961468
 31
0.0
  0
LINE
  5
1E3
  8
0
 10
20.774398
 20
11.080372
 30
0.0
 11
20.754851
 21
10.986313
 31
0.0
  0
LINE
  5
1E4
  8
0
 10
20.77083
 20
11.096331
 30
0.0
 11
20.774398
 21
11.080372
 31
0.0
  0
LINE
  5
1E5
  8
0
 10
20.77083
 20
11.096331
 30
0.0
 11
20.741692
 21
11.113946
 31
0.0
  0
LINE
  5
1E6
  8
0
 10
20.741692
 20
11.113946
 30
0.0
 11
20.725903
 21
11.109688
 31
0.0
  0
LINE
  5
1E7
  8
0
 10
20.725903
 20
11.109688
 30
0.0
 11
20.651702
 21
11.048669
 31
0.0
  0
LINE
  5
1E8
  8
0
 10
20.591753
 20
11.151491
 30
0.0
 11
20.618157
 21
11.059122
 31
0.0
  0
LINE
  5
1E9
  8
0
 10
20.581177
 20
11.163964
 30
0.0
 11
20.591753
 21
11.151491
 31
0.0
  0
LINE
  5
1EA
  8
0
 10
20.581177
 20
11.163964
 30
0.0
 11
20.547191
 21
11.16602
 31
0.0
  0
LINE
  5
1EB
  8
0
 10
20.547191
 20
11.16602
 30
0.0
 11
20.535189
 21
11.154912
 31
0.0
  0
LINE
  5
1EC
  8
0
 10
20.535189
 20
11.154912
 30
0.0
 11
20.497844
 21
11.066399
 31
0.0
  0
LINE
  5
1ED
  8
0
 10
20.396979
 20
11.129584
 30
0.0
 11
20.463284
 21
11.060066
 31
0.0
  0
LINE
  5
1EE
  8
0
 10
20.381818
 20
11.135714
 30
0.0
 11
20.396979
 21
11.129584
 31
0.0
  0
LINE
  5
1EF
  8
0
 10
20.381818
 20
11.135714
 30
0.0
 11
20.350769
 21
11.12174
 31
0.0
  0
LINE
  5
1F0
  8
0
 10
20.350769
 20
11.12174
 30
0.0
 11
20.345304
 21
11.106327
 31
0.0
  0
LINE
  5
1F1
  8
0
 10
20.345304
 20
11.106327
 30
0.0
 11
20.353371
 21
11.010598
 31
0.0
  0
LINE
  5
1F2
  8
0
 10
20.234695
 20
11.019671
 30
0.0
 11
20.325712
 21
10.988929
 31
0.0
  0
LINE
  5
1F3
  8
0
 10
20.218422
 20
11.018053
 30
0.0
 11
20.234695
 21
11.019671
 31
0.0
  0
LINE
  5
1F4
  8
0
 10
20.218422
 20
11.018053
 30
0.0
 11
20.197424
 21
10.991251
 31
0.0
  0
LINE
  5
1F5
  8
0
 10
20.197424
 20
10.991251
 30
0.0
 11
20.199747
 21
10.975063
 31
0.0
  0
LINE
  5
1F6
  8
0
 10
20.199747
 20
10.975063
 30
0.0
 11
20.251378
 21
10.894048
 31
0.0
  0
LINE
  5
1F7
  8
0
 10
20.14208
 20
10.846931
 30
0.0
 11
20.236958
 21
10.862008
 31
0.0
  0
LINE
  5
1F8
  8
0
 10
20.128423
 20
10.837935
 30
0.0
 11
20.14208
 21
10.846931
 31
0.0
  0
LINE
  5
1F9
  8
0
 10
20.128423
 20
10.837935
 30
0.0
 11
20.122285
 21
10.804445
 31
0.0
  0
LINE
  5
1FA
  8
0
 10
20.122285
 20
10.804445
 30
0.0
 11
20.131865
 21
10.791191
 31
0.0
  0
LINE
  5
1FB
  8
0
 10
20.131865
 20
10.791191
 30
0.0
 11
20.215231
 21
10.74345
 31
0.0
  0
LINE
  5
1FC
  8
0
 10
20.140349
 20
10.650936
 30
0.0
 11
20.217353
 21
10.708378
 31
0.0
  0
LINE
  5
1FD
  8
0
 10
20.132437
 20
10.636624
 30
0.0
 11
20.140349
 21
10.650936
 31
0.0
  0
LINE
  5
1FE
  8
0
 10
20.132437
 20
10.636624
 30
0.0
 11
20.142566
 21
10.604118
 31
0.0
  0
LINE
  5
1FF
  8
0
 10
20.142566
 20
10.604118
 30
0.0
 11
20.157208
 21
10.596834
 31
0.0
  0
LINE
  5
200
  8
0
 10
20.157208
 20
10.596834
 30
0.0
 11
20.253211
 21
10.593304
 31
0.0
  0
LINE
  5
201
  8
0
 10
20.296829
 20
10.527523
 30
0.0
 11
20.320905
 21
10.503447
 31
0.0
  0
LINE
  5
202
  8
0
 10
20.126728
 20
10.638947
 30
0.0
 11
20.052527
 21
10.577928
 31
0.0
  0
LINE
  5
203
  8
0
 10
20.142518
 20
10.643205
 30
0.0
 11
20.126728
 21
10.638947
 31
0.0
  0
LINE
  5
204
  8
0
 10
20.142518
 20
10.643205
 30
0.0
 11
20.171655
 21
10.62559
 31
0.0
  0
LINE
  5
205
  8
0
 10
20.171655
 20
10.62559
 30
0.0
 11
20.175223
 21
10.609631
 31
0.0
  0
LINE
  5
206
  8
0
 10
20.175223
 20
10.609631
 30
0.0
 11
20.155676
 21
10.515572
 31
0.0
  0
LINE
  5
207
  8
0
 10
19.950693
 20
10.710684
 30
0.0
 11
19.893251
 21
10.63368
 31
0.0
  0
LINE
  5
208
  8
0
 10
19.965005
 20
10.718596
 30
0.0
 11
19.950693
 21
10.710684
 31
0.0
  0
LINE
  5
209
  8
0
 10
19.965005
 20
10.718596
 30
0.0
 11
19.997512
 21
10.708466
 31
0.0
  0
LINE
  5
20A
  8
0
 10
19.997512
 20
10.708466
 30
0.0
 11
20.004795
 21
10.693825
 31
0.0
  0
LINE
  5
20B
  8
0
 10
20.004795
 20
10.693825
 30
0.0
 11
20.008326
 21
10.597821
 31
0.0
  0
LINE
  5
20C
  8
0
 10
19.762606
 20
10.738208
 30
0.0
 11
19.725262
 21
10.649695
 31
0.0
  0
LINE
  5
20D
  8
0
 10
19.774609
 20
10.749315
 30
0.0
 11
19.762606
 21
10.738208
 31
0.0
  0
LINE
  5
20E
  8
0
 10
19.774609
 20
10.749315
 30
0.0
 11
19.808595
 21
10.747259
 31
0.0
  0
LINE
  5
20F
  8
0
 10
19.808595
 20
10.747259
 30
0.0
 11
19.819171
 21
10.734786
 31
0.0
  0
LINE
  5
210
  8
0
 10
19.819171
 20
10.734786
 30
0.0
 11
19.845574
 21
10.642417
 31
0.0
  0
LINE
  5
211
  8
0
 10
19.573398
 20
10.71992
 30
0.0
 11
19.558321
 21
10.625041
 31
0.0
  0
LINE
  5
212
  8
0
 10
19.582393
 20
10.733576
 30
0.0
 11
19.573398
 21
10.71992
 31
0.0
  0
LINE
  5
213
  8
0
 10
19.582393
 20
10.733576
 30
0.0
 11
19.615884
 21
10.739714
 31
0.0
  0
LINE
  5
214
  8
0
 10
19.615884
 20
10.739714
 30
0.0
 11
19.629138
 21
10.730134
 31
0.0
  0
LINE
  5
215
  8
0
 10
19.629138
 20
10.730134
 30
0.0
 11
19.676879
 21
10.646768
 31
0.0
  0
LINE
  5
216
  8
0
 10
19.394064
 20
10.656882
 30
0.0
 11
19.402131
 21
10.561153
 31
0.0
  0
LINE
  5
217
  8
0
 10
19.39953
 20
10.672295
 30
0.0
 11
19.394064
 21
10.656882
 31
0.0
  0
LINE
  5
218
  8
0
 10
19.39953
 20
10.672295
 30
0.0
 11
19.430578
 21
10.686269
 31
0.0
  0
LINE
  5
219
  8
0
 10
19.430578
 20
10.686269
 30
0.0
 11
19.445739
 21
10.68014
 31
0.0
  0
LINE
  5
21A
  8
0
 10
19.445739
 20
10.68014
 30
0.0
 11
19.512044
 21
10.610621
 31
0.0
  0
LINE
  5
21B
  8
0
 10
19.235027
 20
10.552759
 30
0.0
 11
19.265769
 21
10.461743
 31
0.0
  0
LINE
  5
21C
  8
0
 10
19.236645
 20
10.569032
 30
0.0
 11
19.235027
 21
10.552759
 31
0.0
  0
LINE
  5
21D
  8
0
 10
19.236645
 20
10.569032
 30
0.0
 11
19.263448
 21
10.590031
 31
0.0
  0
LINE
  5
21E
  8
0
 10
19.263448
 20
10.590031
 30
0.0
 11
19.279635
 21
10.587708
 31
0.0
  0
LINE
  5
21F
  8
0
 10
19.279635
 20
10.587708
 30
0.0
 11
19.36065
 21
10.536077
 31
0.0
  0
LINE
  5
220
  8
0
 10
19.10553
 20
10.413602
 30
0.0
 11
19.15716
 21
10.332587
 31
0.0
  0
LINE
  5
221
  8
0
 10
19.103207
 20
10.42979
 30
0.0
 11
19.10553
 21
10.413602
 31
0.0
  0
LINE
  5
222
  8
0
 10
19.103207
 20
10.42979
 30
0.0
 11
19.124205
 21
10.456592
 31
0.0
  0
LINE
  5
223
  8
0
 10
19.124205
 20
10.456592
 30
0.0
 11
19.140478
 21
10.45821
 31
0.0
  0
LINE
  5
224
  8
0
 10
19.140478
 20
10.45821
 30
0.0
 11
19.231495
 21
10.427468
 31
0.0
  0
LINE
  5
225
  8
0
 10
19.013098
 20
10.247498
 30
0.0
 11
19.082616
 21
10.181193
 31
0.0
  0
LINE
  5
226
  8
0
 10
19.006968
 20
10.262659
 30
0.0
 11
19.013098
 21
10.247498
 31
0.0
  0
LINE
  5
227
  8
0
 10
19.006968
 20
10.262659
 30
0.0
 11
19.020942
 21
10.293708
 31
0.0
  0
LINE
  5
228
  8
0
 10
19.020942
 20
10.293708
 30
0.0
 11
19.036355
 21
10.299173
 31
0.0
  0
LINE
  5
229
  8
0
 10
19.036355
 20
10.299173
 30
0.0
 11
19.132084
 21
10.291106
 31
0.0
  0
LINE
  5
22A
  8
0
 10
18.963103
 20
10.0641
 30
0.0
 11
19.046469
 21
10.016358
 31
0.0
  0
LINE
  5
22B
  8
0
 10
18.953524
 20
10.077353
 30
0.0
 11
18.963103
 21
10.0641
 31
0.0
  0
LINE
  5
22C
  8
0
 10
18.953524
 20
10.077353
 30
0.0
 11
18.959661
 21
10.110844
 31
0.0
  0
LINE
  5
22D
  8
0
 10
18.959661
 20
10.110844
 30
0.0
 11
18.973318
 21
10.119839
 31
0.0
  0
LINE
  5
22E
  8
0
 10
18.973318
 20
10.119839
 30
0.0
 11
19.068196
 21
10.134916
 31
0.0
  0
LINE
  5
22F
  8
0
 10
18.958451
 20
9.874066
 30
0.0
 11
19.05082
 21
9.847663
 31
0.0
  0
LINE
  5
230
  8
0
 10
18.945978
 20
9.884642
 30
0.0
 11
18.958451
 21
9.874066
 31
0.0
  0
LINE
  5
231
  8
0
 10
18.945978
 20
9.884642
 30
0.0
 11
18.943922
 21
9.918629
 31
0.0
  0
LINE
  5
232
  8
0
 10
18.943922
 20
9.918629
 30
0.0
 11
18.95503
 21
9.930631
 31
0.0
  0
LINE
  5
233
  8
0
 10
18.95503
 20
9.930631
 30
0.0
 11
19.043543
 21
9.967976
 31
0.0
  0
LINE
  5
234
  8
0
 10
18.999413
 20
9.688442
 30
0.0
 11
19.095416
 21
9.684911
 31
0.0
  0
LINE
  5
235
  8
0
 10
18.984771
 20
9.695726
 30
0.0
 11
18.999413
 21
9.688442
 31
0.0
  0
LINE
  5
236
  8
0
 10
18.984771
 20
9.695726
 30
0.0
 11
18.974641
 21
9.728232
 31
0.0
  0
LINE
  5
237
  8
0
 10
18.974641
 20
9.728232
 30
0.0
 11
18.982554
 21
9.742544
 31
0.0
  0
LINE
  5
238
  8
0
 10
18.982554
 20
9.742544
 30
0.0
 11
19.059557
 21
9.799986
 31
0.0
  0
LINE
  5
239
  8
0
 10
19.083606
 20
9.518014
 30
0.0
 11
19.177665
 21
9.537561
 31
0.0
  0
LINE
  5
23A
  8
0
 10
19.067647
 20
9.521582
 30
0.0
 11
19.083606
 21
9.518014
 31
0.0
  0
LINE
  5
23B
  8
0
 10
19.067647
 20
9.521582
 30
0.0
 11
19.050033
 21
9.55072
 31
0.0
  0
LINE
  5
23C
  8
0
 10
19.050033
 20
9.55072
 30
0.0
 11
19.05429
 21
9.566509
 31
0.0
  0
LINE
  5
23D
  8
0
 10
19.05429
 20
9.566509
 30
0.0
 11
19.115309
 21
9.64071
 31
0.0
  0
LINE
  5
23E
  8
0
 10
19.20614
 20
9.372687
 30
0.0
 11
19.292788
 21
9.414176
 31
0.0
  0
LINE
  5
23F
  8
0
 10
19.18979
 20
9.372332
 30
0.0
 11
19.20614
 21
9.372687
 31
0.0
  0
LINE
  5
240
  8
0
 10
19.18979
 20
9.372332
 30
0.0
 11
19.165715
 21
9.396408
 31
0.0
  0
LINE
  5
241
  8
0
 10
19.165715
 20
9.396408
 30
0.0
 11
19.16607
 21
9.412757
 31
0.0
  0
LINE
  5
242
  8
0
 10
19.16607
 20
9.412757
 30
0.0
 11
19.207558
 21
9.499405
 31
0.0
  0
LINE
  5
243
  8
0
 10
19.359892
 20
9.260907
 30
0.0
 11
19.434093
 21
9.321927
 31
0.0
  0
LINE
  5
244
  8
0
 10
19.344102
 20
9.25665
 30
0.0
 11
19.359892
 21
9.260907
 31
0.0
  0
LINE
  5
245
  8
0
 10
19.344102
 20
9.25665
 30
0.0
 11
19.314964
 21
9.274265
 31
0.0
  0
LINE
  5
246
  8
0
 10
19.314964
 20
9.274265
 30
0.0
 11
19.311396
 21
9.290224
 31
0.0
  0
LINE
  5
247
  8
0
 10
19.311396
 20
9.290224
 30
0.0
 11
19.330943
 21
9.384283
 31
0.0
  0
LINE
  5
248
  8
0
 10
19.535926
 20
9.189171
 30
0.0
 11
19.593368
 21
9.266175
 31
0.0
  0
LINE
  5
249
  8
0
 10
19.521615
 20
9.181259
 30
0.0
 11
19.535926
 21
9.189171
 31
0.0
  0
LINE
  5
24A
  8
0
 10
19.521615
 20
9.181259
 30
0.0
 11
19.489108
 21
9.191388
 31
0.0
  0
LINE
  5
24B
  8
0
 10
19.489108
 20
9.191388
 30
0.0
 11
19.481824
 21
9.20603
 31
0.0
  0
LINE
  5
24C
  8
0
 10
19.481824
 20
9.20603
 30
0.0
 11
19.478294
 21
9.302034
 31
0.0
  0
LINE
  5
24D
  8
0
 10
19.724013
 20
9.161647
 30
0.0
 11
19.761358
 21
9.25016
 31
0.0
  0
LINE
  5
24E
  8
0
 10
19.712011
 20
9.15054
 30
0.0
 11
19.724013
 21
9.161647
 31
0.0
  0
LINE
  5
24F
  8
0
 10
19.712011
 20
9.15054
 30
0.0
 11
19.678025
 21
9.152596
 31
0.0
  0
LINE
  5
250
  8
0
 10
19.678025
 20
9.152596
 30
0.0
 11
19.667449
 21
9.165069
 31
0.0
  0
LINE
  5
251
  8
0
 10
19.667449
 20
9.165069
 30
0.0
 11
19.641046
 21
9.257438
 31
0.0
  0
LINE
  5
252
  8
0
 10
19.913222
 20
9.179935
 30
0.0
 11
19.928299
 21
9.274813
 31
0.0
  0
LINE
  5
253
  8
0
 10
19.904227
 20
9.166278
 30
0.0
 11
19.913222
 21
9.179935
 31
0.0
  0
LINE
  5
254
  8
0
 10
19.904227
 20
9.166278
 30
0.0
 11
19.870736
 21
9.160141
 31
0.0
  0
LINE
  5
255
  8
0
 10
19.870736
 20
9.160141
 30
0.0
 11
19.857482
 21
9.169721
 31
0.0
  0
LINE
  5
256
  8
0
 10
19.857482
 20
9.169721
 30
0.0
 11
19.809741
 21
9.253087
 31
0.0
  0
LINE
  5
257
  8
0
 10
20.092556
 20
9.242972
 30
0.0
 11
20.084489
 21
9.338702
 31
0.0
  0
LINE
  5
258
  8
0
 10
20.08709
 20
9.22756
 30
0.0
 11
20.092556
 21
9.242972
 31
0.0
  0
LINE
  5
259
  8
0
 10
20.08709
 20
9.22756
 30
0.0
 11
20.056042
 21
9.213586
 31
0.0
  0
LINE
  5
25A
  8
0
 10
20.056042
 20
9.213586
 30
0.0
 11
20.04088
 21
9.219715
 31
0.0
  0
LINE
  5
25B
  8
0
 10
20.04088
 20
9.219715
 30
0.0
 11
19.974575
 21
9.289234
 31
0.0
  0
LINE
  5
25C
  8
0
 10
20.251593
 20
9.347095
 30
0.0
 11
20.220851
 21
9.438112
 31
0.0
  0
LINE
  5
25D
  8
0
 10
20.249974
 20
9.330822
 30
0.0
 11
20.251593
 21
9.347095
 31
0.0
  0
LINE
  5
25E
  8
0
 10
20.249974
 20
9.330822
 30
0.0
 11
20.223172
 21
9.309824
 31
0.0
  0
LINE
  5
25F
  8
0
 10
20.223172
 20
9.309824
 30
0.0
 11
20.206985
 21
9.312147
 31
0.0
  0
LINE
  5
260
  8
0
 10
20.206985
 20
9.312147
 30
0.0
 11
20.12597
 21
9.363778
 31
0.0
  0
LINE
  5
261
  8
0
 10
20.38109
 20
9.486253
 30
0.0
 11
20.32946
 21
9.567268
 31
0.0
  0
LINE
  5
262
  8
0
 10
20.383413
 20
9.470065
 30
0.0
 11
20.38109
 21
9.486253
 31
0.0
  0
LINE
  5
263
  8
0
 10
20.383413
 20
9.470065
 30
0.0
 11
20.362415
 21
9.443263
 31
0.0
  0
LINE
  5
264
  8
0
 10
20.362415
 20
9.443263
 30
0.0
 11
20.346142
 21
9.441645
 31
0.0
  0
LINE
  5
265
  8
0
 10
20.346142
 20
9.441645
 30
0.0
 11
20.255125
 21
9.472387
 31
0.0
  0
LINE
  5
266
  8
0
 10
20.473522
 20
9.652357
 30
0.0
 11
20.404004
 21
9.718662
 31
0.0
  0
LINE
  5
267
  8
0
 10
20.479652
 20
9.637196
 30
0.0
 11
20.473522
 21
9.652357
 31
0.0
  0
LINE
  5
268
  8
0
 10
20.479652
 20
9.637196
 30
0.0
 11
20.465678
 21
9.606147
 31
0.0
  0
LINE
  5
269
  8
0
 10
20.465678
 20
9.606147
 30
0.0
 11
20.450265
 21
9.600681
 31
0.0
  0
LINE
  5
26A
  8
0
 10
20.450265
 20
9.600681
 30
0.0
 11
20.354536
 21
9.608748
 31
0.0
  0
LINE
  5
26B
  8
0
 10
20.523517
 20
9.835755
 30
0.0
 11
20.440151
 21
9.883496
 31
0.0
  0
LINE
  5
26C
  8
0
 10
20.533096
 20
9.822501
 30
0.0
 11
20.523517
 21
9.835755
 31
0.0
  0
LINE
  5
26D
  8
0
 10
20.533096
 20
9.822501
 30
0.0
 11
20.526959
 21
9.789011
 31
0.0
  0
LINE
  5
26E
  8
0
 10
20.526959
 20
9.789011
 30
0.0
 11
20.513302
 21
9.780015
 31
0.0
  0
LINE
  5
26F
  8
0
 10
20.513302
 20
9.780015
 30
0.0
 11
20.418424
 21
9.764938
 31
0.0
  0
LINE
  5
270
  8
0
 10
20.528169
 20
10.025788
 30
0.0
 11
20.4358
 21
10.052192
 31
0.0
  0
LINE
  5
271
  8
0
 10
20.540642
 20
10.015212
 30
0.0
 11
20.528169
 21
10.025788
 31
0.0
  0
LINE
  5
272
  8
0
 10
20.540642
 20
10.015212
 30
0.0
 11
20.542697
 21
9.981226
 31
0.0
  0
LINE
  5
273
  8
0
 10
20.542697
 20
9.981226
 30
0.0
 11
20.53159
 21
9.969224
 31
0.0
  0
LINE
  5
274
  8
0
 10
20.53159
 20
9.969224
 30
0.0
 11
20.443077
 21
9.931879
 31
0.0
  0
LINE
  5
275
  8
0
 10
20.487207
 20
10.211413
 30
0.0
 11
20.391204
 21
10.214944
 31
0.0
  0
LINE
  5
276
  8
0
 10
20.501849
 20
10.204129
 30
0.0
 11
20.487207
 21
10.211413
 31
0.0
  0
LINE
  5
277
  8
0
 10
20.501849
 20
10.204129
 30
0.0
 11
20.511978
 21
10.171623
 31
0.0
  0
LINE
  5
278
  8
0
 10
20.511978
 20
10.171623
 30
0.0
 11
20.504066
 21
10.157311
 31
0.0
  0
LINE
  5
279
  8
0
 10
20.504066
 20
10.157311
 30
0.0
 11
20.427062
 21
10.099869
 31
0.0
  0
LINE
  5
27A
  8
0
 10
20.403013
 20
10.381841
 30
0.0
 11
20.308955
 21
10.362294
 31
0.0
  0
LINE
  5
27B
  8
0
 10
20.418973
 20
10.378273
 30
0.0
 11
20.403013
 21
10.381841
 31
0.0
  0
LINE
  5
27C
  8
0
 10
20.418973
 20
10.378273
 30
0.0
 11
20.436587
 21
10.349135
 31
0.0
  0
LINE
  5
27D
  8
0
 10
20.436587
 20
10.349135
 30
0.0
 11
20.43233
 21
10.333346
 31
0.0
  0
LINE
  5
27E
  8
0
 10
20.43233
 20
10.333346
 30
0.0
 11
20.371311
 21
10.259145
 31
0.0
  0
LINE
  5
27F
  8
0
 10
24.028224
 20
10.348697
 30
0.0
 11
24.043301
 21
10.443575
 31
0.0
  0
LINE
  5
280
  8
0
 10
23.972484
 20
10.338482
 30
0.0
 11
23.924743
 21
10.421849
 31
0.0
  0
LINE
  5
281
  8
0
 10
23.832229
 20
10.346966
 30
0.0
 11
23.889671
 21
10.42397
 31
0.0
  0
LINE
  5
282
  8
0
 10
23.785411
 20
10.349184
 30
0.0
 11
23.778127
 21
10.363825
 31
0.0
  0
LINE
  5
283
  8
0
 10
23.817918
 20
10.339054
 30
0.0
 11
23.832229
 21
10.346966
 31
0.0
  0
LINE
  5
284
  8
0
 10
23.785411
 20
10.349184
 30
0.0
 11
23.817918
 21
10.339054
 31
0.0
  0
LINE
  5
285
  8
0
 10
24.019229
 20
10.33504
 30
0.0
 11
24.028224
 21
10.348697
 31
0.0
  0
LINE
  5
286
  8
0
 10
23.985738
 20
10.328903
 30
0.0
 11
24.019229
 21
10.33504
 31
0.0
  0
LINE
  5
287
  8
0
 10
23.985738
 20
10.328903
 30
0.0
 11
23.972484
 21
10.338482
 31
0.0
  0
LINE
  5
288
  8
0
 10
23.52999
 20
10.846931
 30
0.0
 11
23.624868
 21
10.862008
 31
0.0
  0
ARC
  5
289
  8
0
 10
23.926716
 20
10.745422
 30
0.0
 40
0.325
 50
41.742463
 51
48.257537
  0
CIRCLE
  5
28A
  8
0
 10
23.926716
 20
10.745422
 30
0.0
 40
0.1205
  0
LINE
  5
28B
  8
0
 10
23.530477
 20
10.604118
 30
0.0
 11
23.545118
 21
10.596834
 31
0.0
  0
LINE
  5
28C
  8
0
 10
23.65788
 20
10.436517
 30
0.0
 11
23.744528
 21
10.478006
 31
0.0
  0
LINE
  5
28D
  8
0
 10
23.545118
 20
10.596834
 30
0.0
 11
23.641122
 21
10.593304
 31
0.0
  0
LINE
  5
28E
  8
0
 10
23.617455
 20
10.460238
 30
0.0
 11
23.641531
 21
10.436162
 31
0.0
  0
LINE
  5
28F
  8
0
 10
23.61781
 20
10.476587
 30
0.0
 11
23.659299
 21
10.563235
 31
0.0
  0
LINE
  5
290
  8
0
 10
23.617455
 20
10.460238
 30
0.0
 11
23.61781
 21
10.476587
 31
0.0
  0
LINE
  5
291
  8
0
 10
23.641531
 20
10.436162
 30
0.0
 11
23.65788
 21
10.436517
 31
0.0
  0
LINE
  5
292
  8
0
 10
23.778127
 20
10.363825
 30
0.0
 11
23.774597
 21
10.459829
 31
0.0
  0
LINE
  5
293
  8
0
 10
23.520347
 20
10.636624
 30
0.0
 11
23.530477
 21
10.604118
 31
0.0
  0
LINE
  5
294
  8
0
 10
23.520347
 20
10.636624
 30
0.0
 11
23.528259
 21
10.650936
 31
0.0
  0
LINE
  5
295
  8
0
 10
23.528259
 20
10.650936
 30
0.0
 11
23.605263
 21
10.708378
 31
0.0
  0
LINE
  5
296
  8
0
 10
23.519775
 20
10.791191
 30
0.0
 11
23.603142
 21
10.74345
 31
0.0
  0
LINE
  5
297
  8
0
 10
23.510196
 20
10.804445
 30
0.0
 11
23.519775
 21
10.791191
 31
0.0
  0
LINE
  5
298
  8
0
 10
23.516333
 20
10.837935
 30
0.0
 11
23.510196
 21
10.804445
 31
0.0
  0
LINE
  5
299
  8
0
 10
23.516333
 20
10.837935
 30
0.0
 11
23.52999
 21
10.846931
 31
0.0
  0
LINE
  5
29A
  8
0
 10
24.317007
 20
10.588435
 30
0.0
 11
24.310878
 21
10.603597
 31
0.0
  0
LINE
  5
29B
  8
0
 10
24.156356
 20
10.406365
 30
0.0
 11
24.075341
 21
10.457995
 31
0.0
  0
LINE
  5
29C
  8
0
 10
24.303033
 20
10.557387
 30
0.0
 11
24.317007
 21
10.588435
 31
0.0
  0
LINE
  5
29D
  8
0
 10
24.303033
 20
10.557387
 30
0.0
 11
24.28762
 21
10.551921
 31
0.0
  0
LINE
  5
29E
  8
0
 10
24.28762
 20
10.551921
 30
0.0
 11
24.191891
 21
10.559988
 31
0.0
  0
LINE
  5
29F
  8
0
 10
24.200964
 20
10.441313
 30
0.0
 11
24.170222
 21
10.53233
 31
0.0
  0
LINE
  5
2A0
  8
0
 10
24.199346
 20
10.42504
 30
0.0
 11
24.200964
 21
10.441313
 31
0.0
  0
LINE
  5
2A1
  8
0
 10
24.172544
 20
10.404042
 30
0.0
 11
24.199346
 21
10.42504
 31
0.0
  0
LINE
  5
2A2
  8
0
 10
24.172544
 20
10.404042
 30
0.0
 11
24.156356
 21
10.406365
 31
0.0
  0
LINE
  5
2A3
  8
0
 10
24.310878
 20
10.603597
 30
0.0
 11
24.241359
 21
10.669902
 31
0.0
  0
LINE
  5
2A4
  8
0
 10
23.923099
 20
11.154912
 30
0.0
 11
23.885755
 21
11.066399
 31
0.0
  0
LINE
  5
2A5
  8
0
 10
23.733214
 20
11.106327
 30
0.0
 11
23.741281
 21
11.010598
 31
0.0
  0
LINE
  5
2A6
  8
0
 10
23.78489
 20
11.129584
 30
0.0
 11
23.851195
 21
11.060066
 31
0.0
  0
LINE
  5
2A7
  8
0
 10
23.622606
 20
11.019671
 30
0.0
 11
23.713623
 21
10.988929
 31
0.0
  0
LINE
  5
2A8
  8
0
 10
23.587658
 20
10.975063
 30
0.0
 11
23.639288
 21
10.894048
 31
0.0
  0
LINE
  5
2A9
  8
0
 10
23.585335
 20
10.991251
 30
0.0
 11
23.587658
 21
10.975063
 31
0.0
  0
LINE
  5
2AA
  8
0
 10
23.606333
 20
11.018053
 30
0.0
 11
23.585335
 21
10.991251
 31
0.0
  0
LINE
  5
2AB
  8
0
 10
23.606333
 20
11.018053
 30
0.0
 11
23.622606
 21
11.019671
 31
0.0
  0
LINE
  5
2AC
  8
0
 10
23.73868
 20
11.12174
 30
0.0
 11
23.733214
 21
11.106327
 31
0.0
  0
LINE
  5
2AD
  8
0
 10
23.769729
 20
11.135714
 30
0.0
 11
23.73868
 21
11.12174
 31
0.0
  0
LINE
  5
2AE
  8
0
 10
23.769729
 20
11.135714
 30
0.0
 11
23.78489
 21
11.129584
 31
0.0
  0
LINE
  5
2AF
  8
0
 10
23.979664
 20
11.151491
 30
0.0
 11
24.006067
 21
11.059122
 31
0.0
  0
LINE
  5
2B0
  8
0
 10
24.113813
 20
11.109688
 30
0.0
 11
24.039612
 21
11.048669
 31
0.0
  0
LINE
  5
2B1
  8
0
 10
24.15874
 20
11.096331
 30
0.0
 11
24.129602
 21
11.113946
 31
0.0
  0
LINE
  5
2B2
  8
0
 10
24.15874
 20
11.096331
 30
0.0
 11
24.162308
 21
11.080372
 31
0.0
  0
LINE
  5
2B3
  8
0
 10
24.162308
 20
11.080372
 30
0.0
 11
24.142761
 21
10.986313
 31
0.0
  0
LINE
  5
2B4
  8
0
 10
24.129602
 20
11.113946
 30
0.0
 11
24.113813
 21
11.109688
 31
0.0
  0
LINE
  5
2B5
  8
0
 10
23.935102
 20
11.16602
 30
0.0
 11
23.923099
 21
11.154912
 31
0.0
  0
LINE
  5
2B6
  8
0
 10
23.969088
 20
11.163964
 30
0.0
 11
23.935102
 21
11.16602
 31
0.0
  0
LINE
  5
2B7
  8
0
 10
23.969088
 20
11.163964
 30
0.0
 11
23.979664
 21
11.151491
 31
0.0
  0
LINE
  5
2B8
  8
0
 10
26.488323
 20
10.553274
 30
0.0
 11
26.505937
 21
10.524136
 31
0.0
  0
LINE
  5
2B9
  8
0
 10
25.17488
 20
10.588603
 30
0.0
 11
25.22651
 21
10.507588
 31
0.0
  0
ARC
  5
2BA
  8
0
 10
25.81266
 20
10.124928
 30
0.0
 40
0.7
 50
91.477429
 51
95.445648
  0
LINE
  5
2BB
  8
0
 10
26.15644
 20
9.40256
 30
0.0
 11
26.125392
 21
9.388587
 31
0.0
  0
LINE
  5
2BC
  8
0
 10
25.380747
 20
9.465225
 30
0.0
 11
25.400294
 21
9.559283
 31
0.0
  0
LINE
  5
2BD
  8
0
 10
25.429242
 20
9.435908
 30
0.0
 11
25.503443
 21
9.496928
 31
0.0
  0
LINE
  5
2BE
  8
0
 10
25.384315
 20
9.449265
 30
0.0
 11
25.380747
 21
9.465225
 31
0.0
  0
LINE
  5
2BF
  8
0
 10
25.413452
 20
9.431651
 30
0.0
 11
25.384315
 21
9.449265
 31
0.0
  0
LINE
  5
2C0
  8
0
 10
25.413452
 20
9.431651
 30
0.0
 11
25.429242
 21
9.435908
 31
0.0
  0
LINE
  5
2C1
  8
0
 10
25.551175
 20
9.381031
 30
0.0
 11
25.547644
 21
9.477034
 31
0.0
  0
LINE
  5
2C2
  8
0
 10
25.558458
 20
9.366389
 30
0.0
 11
25.551175
 21
9.381031
 31
0.0
  0
LINE
  5
2C3
  8
0
 10
25.590965
 20
9.35626
 30
0.0
 11
25.558458
 21
9.366389
 31
0.0
  0
LINE
  5
2C4
  8
0
 10
25.590965
 20
9.35626
 30
0.0
 11
25.605277
 21
9.364172
 31
0.0
  0
LINE
  5
2C5
  8
0
 10
25.605277
 20
9.364172
 30
0.0
 11
25.662719
 21
9.441176
 31
0.0
  0
LINE
  5
2C6
  8
0
 10
25.940086
 20
9.335142
 30
0.0
 11
25.926833
 21
9.344721
 31
0.0
  0
LINE
  5
2C7
  8
0
 10
25.926833
 20
9.344721
 30
0.0
 11
25.879091
 21
9.428087
 31
0.0
  0
LINE
  5
2C8
  8
0
 10
25.736799
 20
9.340069
 30
0.0
 11
25.710396
 21
9.432438
 31
0.0
  0
LINE
  5
2C9
  8
0
 10
25.747375
 20
9.327596
 30
0.0
 11
25.736799
 21
9.340069
 31
0.0
  0
LINE
  5
2CA
  8
0
 10
25.781361
 20
9.325541
 30
0.0
 11
25.747375
 21
9.327596
 31
0.0
  0
LINE
  5
2CB
  8
0
 10
25.781361
 20
9.325541
 30
0.0
 11
25.793364
 21
9.336648
 31
0.0
  0
LINE
  5
2CC
  8
0
 10
25.793364
 20
9.336648
 30
0.0
 11
25.830708
 21
9.425161
 31
0.0
  0
LINE
  5
2CD
  8
0
 10
26.110231
 20
9.394716
 30
0.0
 11
26.043926
 21
9.464234
 31
0.0
  0
LINE
  5
2CE
  8
0
 10
26.125392
 20
9.388587
 30
0.0
 11
26.110231
 21
9.394716
 31
0.0
  0
LINE
  5
2CF
  8
0
 10
25.973577
 20
9.341279
 30
0.0
 11
25.940086
 21
9.335142
 31
0.0
  0
LINE
  5
2D0
  8
0
 10
25.973577
 20
9.341279
 30
0.0
 11
25.982572
 21
9.354936
 31
0.0
  0
LINE
  5
2D1
  8
0
 10
25.982572
 20
9.354936
 30
0.0
 11
25.997649
 21
9.449814
 31
0.0
  0
LINE
  5
2D2
  8
0
 10
25.23542
 20
9.587758
 30
0.0
 11
25.276909
 21
9.674406
 31
0.0
  0
LINE
  5
2D3
  8
0
 10
25.259141
 20
9.547333
 30
0.0
 11
25.27549
 21
9.547688
 31
0.0
  0
LINE
  5
2D4
  8
0
 10
25.027801
 20
10.049067
 30
0.0
 11
25.12017
 21
10.022664
 31
0.0
  0
LINE
  5
2D5
  8
0
 10
25.12364
 20
9.74151
 30
0.0
 11
25.18466
 21
9.815711
 31
0.0
  0
LINE
  5
2D6
  8
0
 10
25.235065
 20
9.571409
 30
0.0
 11
25.23542
 21
9.587758
 31
0.0
  0
LINE
  5
2D7
  8
0
 10
25.259141
 20
9.547333
 30
0.0
 11
25.235065
 21
9.571409
 31
0.0
  0
LINE
  5
2D8
  8
0
 10
25.119383
 20
9.72572
 30
0.0
 11
25.12364
 21
9.74151
 31
0.0
  0
LINE
  5
2D9
  8
0
 10
25.136997
 20
9.696583
 30
0.0
 11
25.119383
 21
9.72572
 31
0.0
  0
LINE
  5
2DA
  8
0
 10
25.136997
 20
9.696583
 30
0.0
 11
25.152957
 21
9.693015
 31
0.0
  0
LINE
  5
2DB
  8
0
 10
25.152957
 20
9.693015
 30
0.0
 11
25.247015
 21
9.712562
 31
0.0
  0
LINE
  5
2DC
  8
0
 10
25.043992
 20
9.903233
 30
0.0
 11
25.051904
 21
9.917545
 31
0.0
  0
LINE
  5
2DD
  8
0
 10
25.054121
 20
9.870726
 30
0.0
 11
25.043992
 21
9.903233
 31
0.0
  0
LINE
  5
2DE
  8
0
 10
25.051904
 20
9.917545
 30
0.0
 11
25.128908
 21
9.974987
 31
0.0
  0
LINE
  5
2DF
  8
0
 10
25.054121
 20
9.870726
 30
0.0
 11
25.068763
 21
9.863443
 31
0.0
  0
LINE
  5
2E0
  8
0
 10
25.068763
 20
9.863443
 30
0.0
 11
25.164766
 21
9.859912
 31
0.0
  0
LINE
  5
2E1
  8
0
 10
25.022874
 20
10.252354
 30
0.0
 11
25.029011
 21
10.285845
 31
0.0
  0
LINE
  5
2E2
  8
0
 10
25.02438
 20
10.105632
 30
0.0
 11
25.112893
 21
10.142976
 31
0.0
  0
LINE
  5
2E3
  8
0
 10
25.032453
 20
10.239101
 30
0.0
 11
25.115819
 21
10.191359
 31
0.0
  0
LINE
  5
2E4
  8
0
 10
25.013273
 20
10.093629
 30
0.0
 11
25.02438
 21
10.105632
 31
0.0
  0
LINE
  5
2E5
  8
0
 10
25.015328
 20
10.059643
 30
0.0
 11
25.013273
 21
10.093629
 31
0.0
  0
LINE
  5
2E6
  8
0
 10
25.015328
 20
10.059643
 30
0.0
 11
25.027801
 21
10.049067
 31
0.0
  0
LINE
  5
2E7
  8
0
 10
25.022874
 20
10.252354
 30
0.0
 11
25.032453
 21
10.239101
 31
0.0
  0
LINE
  5
2E8
  8
0
 10
25.042668
 20
10.29484
 30
0.0
 11
25.137546
 21
10.309917
 31
0.0
  0
LINE
  5
2E9
  8
0
 10
25.029011
 20
10.285845
 30
0.0
 11
25.042668
 21
10.29484
 31
0.0
  0
LINE
  5
2EA
  8
0
 10
25.105705
 20
10.474174
 30
0.0
 11
25.201434
 21
10.466107
 31
0.0
  0
LINE
  5
2EB
  8
0
 10
25.090292
 20
10.468708
 30
0.0
 11
25.105705
 21
10.474174
 31
0.0
  0
LINE
  5
2EC
  8
0
 10
25.076319
 20
10.43766
 30
0.0
 11
25.090292
 21
10.468708
 31
0.0
  0
LINE
  5
2ED
  8
0
 10
25.076319
 20
10.43766
 30
0.0
 11
25.082448
 21
10.422499
 31
0.0
  0
LINE
  5
2EE
  8
0
 10
25.082448
 20
10.422499
 30
0.0
 11
25.151966
 21
10.356194
 31
0.0
  0
LINE
  5
2EF
  8
0
 10
25.27549
 20
9.547688
 30
0.0
 11
25.362138
 21
9.589177
 31
0.0
  0
LINE
  5
2F0
  8
0
 10
26.276335
 20
9.487148
 30
0.0
 11
26.19532
 21
9.538778
 31
0.0
  0
LINE
  5
2F1
  8
0
 10
26.320943
 20
9.522096
 30
0.0
 11
26.290201
 21
9.613113
 31
0.0
  0
LINE
  5
2F2
  8
0
 10
26.292522
 20
9.484825
 30
0.0
 11
26.276335
 21
9.487148
 31
0.0
  0
LINE
  5
2F3
  8
0
 10
26.319325
 20
9.505823
 30
0.0
 11
26.292522
 21
9.484825
 31
0.0
  0
LINE
  5
2F4
  8
0
 10
26.319325
 20
9.505823
 30
0.0
 11
26.320943
 21
9.522096
 31
0.0
  0
LINE
  5
2F5
  8
0
 10
26.15644
 20
9.40256
 30
0.0
 11
26.161906
 21
9.417973
 31
0.0
  0
LINE
  5
2F6
  8
0
 10
26.161906
 20
9.417973
 30
0.0
 11
26.153839
 21
9.513702
 31
0.0
  0
LINE
  5
2F7
  8
0
 10
26.592867
 20
10.010756
 30
0.0
 11
26.509501
 21
10.058497
 31
0.0
  0
LINE
  5
2F8
  8
0
 10
26.596309
 20
9.964011
 30
0.0
 11
26.582652
 21
9.955016
 31
0.0
  0
LINE
  5
2F9
  8
0
 10
26.519615
 20
9.775682
 30
0.0
 11
26.423886
 21
9.783749
 31
0.0
  0
LINE
  5
2FA
  8
0
 10
26.535028
 20
9.781148
 30
0.0
 11
26.519615
 21
9.775682
 31
0.0
  0
LINE
  5
2FB
  8
0
 10
26.415492
 20
9.616645
 30
0.0
 11
26.324475
 21
9.647387
 31
0.0
  0
LINE
  5
2FC
  8
0
 10
26.431765
 20
9.618264
 30
0.0
 11
26.415492
 21
9.616645
 31
0.0
  0
LINE
  5
2FD
  8
0
 10
26.452763
 20
9.645066
 30
0.0
 11
26.431765
 21
9.618264
 31
0.0
  0
LINE
  5
2FE
  8
0
 10
26.452763
 20
9.645066
 30
0.0
 11
26.45044
 21
9.661253
 31
0.0
  0
LINE
  5
2FF
  8
0
 10
26.45044
 20
9.661253
 30
0.0
 11
26.39881
 21
9.742268
 31
0.0
  0
LINE
  5
300
  8
0
 10
26.582652
 20
9.955016
 30
0.0
 11
26.487774
 21
9.939939
 31
0.0
  0
LINE
  5
301
  8
0
 10
26.549002
 20
9.812196
 30
0.0
 11
26.535028
 21
9.781148
 31
0.0
  0
LINE
  5
302
  8
0
 10
26.549002
 20
9.812196
 30
0.0
 11
26.542872
 21
9.827358
 31
0.0
  0
LINE
  5
303
  8
0
 10
26.542872
 20
9.827358
 30
0.0
 11
26.473354
 21
9.893663
 31
0.0
  0
LINE
  5
304
  8
0
 10
26.602447
 20
9.997502
 30
0.0
 11
26.596309
 21
9.964011
 31
0.0
  0
LINE
  5
305
  8
0
 10
26.602447
 20
9.997502
 30
0.0
 11
26.592867
 21
10.010756
 31
0.0
  0
LINE
  5
306
  8
0
 10
26.60094
 20
10.144225
 30
0.0
 11
26.512427
 21
10.10688
 31
0.0
  0
LINE
  5
307
  8
0
 10
26.597519
 20
10.200789
 30
0.0
 11
26.50515
 21
10.227192
 31
0.0
  0
LINE
  5
308
  8
0
 10
26.573416
 20
10.332312
 30
0.0
 11
26.496413
 21
10.27487
 31
0.0
  0
LINE
  5
309
  8
0
 10
26.50168
 20
10.508346
 30
0.0
 11
26.440661
 21
10.434145
 31
0.0
  0
LINE
  5
30A
  8
0
 10
26.505937
 20
10.524136
 30
0.0
 11
26.50168
 21
10.508346
 31
0.0
  0
LINE
  5
30B
  8
0
 10
26.581329
 20
10.346623
 30
0.0
 11
26.573416
 21
10.332312
 31
0.0
  0
LINE
  5
30C
  8
0
 10
26.571199
 20
10.37913
 30
0.0
 11
26.581329
 21
10.346623
 31
0.0
  0
LINE
  5
30D
  8
0
 10
26.571199
 20
10.37913
 30
0.0
 11
26.556557
 21
10.386414
 31
0.0
  0
LINE
  5
30E
  8
0
 10
26.556557
 20
10.386414
 30
0.0
 11
26.460554
 21
10.389944
 31
0.0
  0
LINE
  5
30F
  8
0
 10
26.612048
 20
10.156227
 30
0.0
 11
26.60094
 21
10.144225
 31
0.0
  0
LINE
  5
310
  8
0
 10
26.609992
 20
10.190213
 30
0.0
 11
26.612048
 21
10.156227
 31
0.0
  0
LINE
  5
311
  8
0
 10
26.609992
 20
10.190213
 30
0.0
 11
26.597519
 21
10.200789
 31
0.0
  0
LINE
  5
312
  8
0
 10
26.196078
 20
10.813948
 30
0.0
 11
26.121877
 21
10.752929
 31
0.0
  0
LINE
  5
313
  8
0
 10
25.209828
 20
10.633211
 30
0.0
 11
25.300845
 21
10.602469
 31
0.0
  0
LINE
  5
314
  8
0
 10
25.193555
 20
10.631593
 30
0.0
 11
25.209828
 21
10.633211
 31
0.0
  0
LINE
  5
315
  8
0
 10
25.172557
 20
10.60479
 30
0.0
 11
25.193555
 21
10.631593
 31
0.0
  0
LINE
  5
316
  8
0
 10
25.172557
 20
10.60479
 30
0.0
 11
25.17488
 21
10.588603
 31
0.0
  0
LINE
  5
317
  8
0
 10
25.698488
 20
10.905135
 30
0.0
 11
25.746229
 21
10.821769
 31
0.0
  0
LINE
  5
318
  8
0
 10
25.463414
 20
10.831883
 30
0.0
 11
25.471481
 21
10.736154
 31
0.0
  0
LINE
  5
319
  8
0
 10
25.348985
 20
10.762708
 30
0.0
 11
25.43
 21
10.711078
 31
0.0
  0
LINE
  5
31A
  8
0
 10
25.332798
 20
10.765031
 30
0.0
 11
25.348985
 21
10.762708
 31
0.0
  0
LINE
  5
31B
  8
0
 10
25.305996
 20
10.744033
 30
0.0
 11
25.332798
 21
10.765031
 31
0.0
  0
LINE
  5
31C
  8
0
 10
25.305996
 20
10.744033
 30
0.0
 11
25.304377
 21
10.72776
 31
0.0
  0
LINE
  5
31D
  8
0
 10
25.304377
 20
10.72776
 30
0.0
 11
25.335119
 21
10.636743
 31
0.0
  0
LINE
  5
31E
  8
0
 10
25.46888
 20
10.847296
 30
0.0
 11
25.499928
 21
10.86127
 31
0.0
  0
LINE
  5
31F
  8
0
 10
25.46888
 20
10.847296
 30
0.0
 11
25.463414
 21
10.831883
 31
0.0
  0
LINE
  5
320
  8
0
 10
25.51509
 20
10.85514
 30
0.0
 11
25.581395
 21
10.785622
 31
0.0
  0
LINE
  5
321
  8
0
 10
25.499928
 20
10.86127
 30
0.0
 11
25.51509
 21
10.85514
 31
0.0
  0
LINE
  5
322
  8
0
 10
25.685234
 20
10.914715
 30
0.0
 11
25.698488
 21
10.905135
 31
0.0
  0
LINE
  5
323
  8
0
 10
25.651743
 20
10.908577
 30
0.0
 11
25.685234
 21
10.914715
 31
0.0
  0
LINE
  5
324
  8
0
 10
25.651743
 20
10.908577
 30
0.0
 11
25.642748
 21
10.89492
 31
0.0
  0
LINE
  5
325
  8
0
 10
25.642748
 20
10.89492
 30
0.0
 11
25.627671
 21
10.800042
 31
0.0
  0
LINE
  5
326
  8
0
 10
26.074146
 20
10.868825
 30
0.0
 11
26.077676
 21
10.772822
 31
0.0
  0
LINE
  5
327
  8
0
 10
25.888521
 20
10.909787
 30
0.0
 11
25.914924
 21
10.817418
 31
0.0
  0
LINE
  5
328
  8
0
 10
25.877945
 20
10.92226
 30
0.0
 11
25.888521
 21
10.909787
 31
0.0
  0
LINE
  5
329
  8
0
 10
25.843959
 20
10.924316
 30
0.0
 11
25.877945
 21
10.92226
 31
0.0
  0
LINE
  5
32A
  8
0
 10
25.843959
 20
10.924316
 30
0.0
 11
25.831957
 21
10.913208
 31
0.0
  0
LINE
  5
32B
  8
0
 10
25.831957
 20
10.913208
 30
0.0
 11
25.794612
 21
10.824695
 31
0.0
  0
LINE
  5
32C
  8
0
 10
26.066862
 20
10.883467
 30
0.0
 11
26.074146
 21
10.868825
 31
0.0
  0
LINE
  5
32D
  8
0
 10
26.034355
 20
10.893597
 30
0.0
 11
26.066862
 21
10.883467
 31
0.0
  0
LINE
  5
32E
  8
0
 10
26.034355
 20
10.893597
 30
0.0
 11
26.020044
 21
10.885684
 31
0.0
  0
LINE
  5
32F
  8
0
 10
26.020044
 20
10.885684
 30
0.0
 11
25.962602
 21
10.808681
 31
0.0
  0
LINE
  5
330
  8
0
 10
26.244574
 20
10.784632
 30
0.0
 11
26.225027
 21
10.690573
 31
0.0
  0
LINE
  5
331
  8
0
 10
26.36618
 20
10.702523
 30
0.0
 11
26.390255
 21
10.678448
 31
0.0
  0
LINE
  5
332
  8
0
 10
26.3899
 20
10.662098
 30
0.0
 11
26.348412
 21
10.57545
 31
0.0
  0
LINE
  5
333
  8
0
 10
26.34983
 20
10.702168
 30
0.0
 11
26.263182
 21
10.66068
 31
0.0
  0
LINE
  5
334
  8
0
 10
26.36618
 20
10.702523
 30
0.0
 11
26.34983
 21
10.702168
 31
0.0
  0
LINE
  5
335
  8
0
 10
26.488323
 20
10.553274
 30
0.0
 11
26.472364
 21
10.556842
 31
0.0
  0
LINE
  5
336
  8
0
 10
26.472364
 20
10.556842
 30
0.0
 11
26.378305
 21
10.537295
 31
0.0
  0
LINE
  5
337
  8
0
 10
26.390255
 20
10.678448
 30
0.0
 11
26.3899
 21
10.662098
 31
0.0
  0
LINE
  5
338
  8
0
 10
26.241006
 20
10.800591
 30
0.0
 11
26.244574
 21
10.784632
 31
0.0
  0
LINE
  5
339
  8
0
 10
26.211868
 20
10.818205
 30
0.0
 11
26.241006
 21
10.800591
 31
0.0
  0
LINE
  5
33A
  8
0
 10
26.211868
 20
10.818205
 30
0.0
 11
26.196078
 21
10.813948
 31
0.0
  0
ARC
  5
33B
  8
0
 10
23.926716
 20
10.745422
 30
0.0
 40
0.325
 50
69.434771
 51
75.949845
  0
ARC
  5
33C
  8
0
 10
23.926716
 20
10.745422
 30
0.0
 40
0.325
 50
97.127079
 51
103.642152
  0
ARC
  5
33D
  8
0
 10
23.926716
 20
10.745422
 30
0.0
 40
0.325
 50
124.819386
 51
131.33446
  0
ARC
  5
33E
  8
0
 10
23.926716
 20
10.745422
 30
0.0
 40
0.325
 50
152.511694
 51
159.026768
  0
ARC
  5
33F
  8
0
 10
23.926716
 20
10.745422
 30
0.0
 40
0.325
 50
180.204002
 51
186.719075
  0
ARC
  5
340
  8
0
 10
23.926716
 20
10.745422
 30
0.0
 40
0.325
 50
207.896309
 51
214.411383
  0
ARC
  5
341
  8
0
 10
23.926716
 20
10.745422
 30
0.0
 40
0.325
 50
235.588617
 51
242.103691
  0
ARC
  5
342
  8
0
 10
23.926716
 20
10.745422
 30
0.0
 40
0.325
 50
290.973232
 51
297.488306
  0
ARC
  5
343
  8
0
 10
23.926716
 20
10.745422
 30
0.0
 40
0.325
 50
318.66554
 51
325.180614
  0
ARC
  5
344
  8
0
 10
23.926716
 20
10.745422
 30
0.0
 40
0.325
 50
346.357848
 51
352.872921
  0
ARC
  5
345
  8
0
 10
23.926716
 20
10.745422
 30
0.0
 40
0.325
 50
14.050155
 51
20.565229
  0
ARC
  5
346
  8
0
 10
23.925734
 20
10.744107
 30
0.0
 40
0.325
 50
263.280932
 51
269.796006
  0
CIRCLE
  5
347
  8
0
 10
25.81266
 20
10.124928
 30
0.0
 40
0.1205
  0
ARC
  5
348
  8
0
 10
25.81266
 20
10.124928
 30
0.0
 40
0.7
 50
105.323582
 51
109.291802
  0
ARC
  5
349
  8
0
 10
25.81266
 20
10.124928
 30
0.0
 40
0.7
 50
119.169736
 51
123.137956
  0
ARC
  5
34A
  8
0
 10
25.81266
 20
10.124928
 30
0.0
 40
0.7
 50
133.01589
 51
136.98411
  0
ARC
  5
34B
  8
0
 10
25.81266
 20
10.124928
 30
0.0
 40
0.7
 50
146.862044
 51
150.830264
  0
ARC
  5
34C
  8
0
 10
25.81266
 20
10.124928
 30
0.0
 40
0.7
 50
160.708198
 51
164.676418
  0
ARC
  5
34D
  8
0
 10
25.81266
 20
10.124928
 30
0.0
 40
0.7
 50
174.554352
 51
178.522571
  0
ARC
  5
34E
  8
0
 10
25.81266
 20
10.124928
 30
0.0
 40
0.7
 50
188.400506
 51
192.368725
  0
ARC
  5
34F
  8
0
 10
25.81266
 20
10.124928
 30
0.0
 40
0.7
 50
202.246659
 51
206.214879
  0
ARC
  5
350
  8
0
 10
25.81266
 20
10.124928
 30
0.0
 40
0.7
 50
216.092813
 51
220.061033
  0
ARC
  5
351
  8
0
 10
25.81266
 20
10.124928
 30
0.0
 40
0.7
 50
229.938967
 51
233.907187
  0
ARC
  5
352
  8
0
 10
25.81266
 20
10.124928
 30
0.0
 40
0.7
 50
243.785121
 51
247.753341
  0
ARC
  5
353
  8
0
 10
25.81266
 20
10.124928
 30
0.0
 40
0.7
 50
257.631275
 51
261.599494
  0
ARC
  5
354
  8
0
 10
25.81266
 20
10.124928
 30
0.0
 40
0.7
 50
271.477429
 51
275.445648
  0
ARC
  5
355
  8
0
 10
25.81266
 20
10.124928
 30
0.0
 40
0.7
 50
285.323582
 51
289.291802
  0
ARC
  5
356
  8
0
 10
25.81266
 20
10.124928
 30
0.0
 40
0.7
 50
299.169736
 51
303.137956
  0
ARC
  5
357
  8
0
 10
25.81266
 20
10.124928
 30
0.0
 40
0.7
 50
313.01589
 51
316.98411
  0
ARC
  5
358
  8
0
 10
25.81266
 20
10.124928
 30
0.0
 40
0.7
 50
326.862044
 51
330.830264
  0
ARC
  5
359
  8
0
 10
25.81266
 20
10.124928
 30
0.0
 40
0.7
 50
340.708198
 51
344.676418
  0
ARC
  5
35A
  8
0
 10
25.81266
 20
10.124928
 30
0.0
 40
0.7
 50
354.554352
 51
358.522571
  0
ARC
  5
35B
  8
0
 10
25.81266
 20
10.124928
 30
0.0
 40
0.7
 50
8.400506
 51
12.368725
  0
ARC
  5
35C
  8
0
 10
25.81266
 20
10.124928
 30
0.0
 40
0.7
 50
22.246659
 51
26.214879
  0
ARC
  5
35D
  8
0
 10
25.81266
 20
10.124928
 30
0.0
 40
0.7
 50
36.092813
 51
40.061033
  0
ARC
  5
35E
  8
0
 10
25.81266
 20
10.124928
 30
0.0
 40
0.7
 50
49.938967
 51
53.907187
  0
ARC
  5
35F
  8
0
 10
25.81266
 20
10.124928
 30
0.0
 40
0.7
 50
63.785121
 51
67.753341
  0
ARC
  5
360
  8
0
 10
25.81266
 20
10.124928
 30
0.0
 40
0.7
 50
77.631275
 51
81.599494
  0
CIRCLE
  5
361
  8
0
 10
19.74331
 20
9.949927
 30
0.0
 40
0.247
  0
CIRCLE
  5
362
  8
0
 10
19.74331
 20
9.949927
 30
0.0
 40
0.1875
  0
CIRCLE
  5
363
  8
0
 10
19.74331
 20
9.949927
 30
0.0
 40
0.1205
  0
POLYLINE
  5
364
  8
0
 66
     1
 10
0.0
 20
0.0
 30
0.0
  0
VERTEX
  5
464
  8
0
 10
23.01786
 20
13.113241
 30
0.0
  0
VERTEX
  5
465
  8
0
 10
23.01786
 20
16.633808
 30
0.0
  0
SEQEND
  5
466
  8
0
  0
POLYLINE
  5
368
  8
0
 66
     1
 10
0.0
 20
0.0
 30
0.0
  0
VERTEX
  5
467
  8
0
 10
23.01786
 20
16.633808
 30
0.0
  0
VERTEX
  5
468
  8
0
 10
23.01786
 20
17.113241
 30
0.0
  0
VERTEX
  5
469
  8
0
 10
27.01786
 20
17.113241
 30
0.0
  0
VERTEX
  5
46A
  8
0
 10
27.01786
 20
13.113241
 30
0.0
  0
VERTEX
  5
46B
  8
0
 10
23.01786
 20
13.113241
 30
0.0
  0
SEQEND
  5
46C
  8
0
  0
CIRCLE
  5
36F
  8
0
 10
23.272239
 20
13.367759
 30
0.0
 40
0.1205
  0
CIRCLE
  5
370
  8
0
 10
24.222365
 20
14.317746
 30
0.0
 40
0.247
  0
CIRCLE
  5
371
  8
0
 10
26.773745
 20
13.339844
 30
0.0
 40
0.1205
  0
CIRCLE
  5
372
  8
0
 10
23.309489
 20
15.917325
 30
0.0
 40
0.1205
  0
CIRCLE
  5
373
  8
0
 10
25.01786
 20
15.113241
 30
0.0
 40
0.247
  0
CIRCLE
  5
374
  8
0
 10
23.290864
 20
16.903653
 30
0.0
 40
0.1205
  0
CIRCLE
  5
375
  8
0
 10
26.773745
 20
16.894348
 30
0.0
 40
0.1205
  0
POLYLINE
  5
376
  8
0
 66
     1
 10
0.0
 20
0.0
 30
0.0
  0
VERTEX
  5
46D
  8
0
 10
27.376416
 20
16.633808
 30
0.0
  0
VERTEX
  5
46E
  8
0
 10
27.376416
 20
17.113241
 30
0.0
  0
VERTEX
  5
46F
  8
0
 10
31.376416
 20
17.113241
 30
0.0
  0
VERTEX
  5
470
  8
0
 10
31.376416
 20
13.113241
 30
0.0
  0
VERTEX
  5
471
  8
0
 10
27.376416
 20
13.113241
 30
0.0
  0
SEQEND
  5
472
  8
0
  0
CIRCLE
  5
37D
  8
0
 10
28.580921
 20
14.317746
 30
0.0
 40
0.1875
  0
POLYLINE
  5
37E
  8
0
 66
     1
 10
0.0
 20
0.0
 30
0.0
  0
VERTEX
  5
473
  8
0
 10
27.376416
 20
13.113241
 30
0.0
  0
VERTEX
  5
474
  8
0
 10
27.376416
 20
16.633808
 30
0.0
  0
SEQEND
  5
475
  8
0
  0
CIRCLE
  5
382
  8
0
 10
27.630796
 20
13.367759
 30
0.0
 40
0.1205
  0
CIRCLE
  5
383
  8
0
 10
27.668046
 20
15.917325
 30
0.0
 40
0.1205
  0
CIRCLE
  5
384
  8
0
 10
29.376416
 20
15.113241
 30
0.0
 40
0.247
  0
CIRCLE
  5
385
  8
0
 10
27.649421
 20
16.903653
 30
0.0
 40
0.1205
  0
CIRCLE
  5
386
  8
0
 10
31.132301
 20
13.339844
 30
0.0
 40
0.1205
  0
CIRCLE
  5
387
  8
0
 10
31.132301
 20
16.894348
 30
0.0
 40
0.1205
  0
POLYLINE
  5
388
  8
0
 66
     1
 10
0.0
 20
0.0
 30
0.0
  0
VERTEX
  5
476
  8
0
 10
24.247693
 20
10.704462
 30
0.0
  0
VERTEX
  5
477
  8
0
 10
24.336205
 20
10.741806
 30
0.0
  0
VERTEX
  5
478
  8
0
 10
24.347313
 20
10.753809
 30
0.0
  0
VERTEX
  5
479
  8
0
 10
24.345257
 20
10.787795
 30
0.0
  0
VERTEX
  5
47A
  8
0
 10
24.332784
 20
10.798371
 30
0.0
  0
VERTEX
  5
47B
  8
0
 10
24.240415
 20
10.824774
 30
0.0
  0
SEQEND
  5
47C
  8
0
  0
POLYLINE
  5
390
  8
0
 66
     1
 10
0.0
 20
0.0
 30
0.0
  0
VERTEX
  5
47D
  8
0
 10
24.229962
 20
10.858319
 30
0.0
  0
VERTEX
  5
47E
  8
0
 10
24.290981
 20
10.93252
 30
0.0
  0
VERTEX
  5
47F
  8
0
 10
24.295239
 20
10.948309
 30
0.0
  0
VERTEX
  5
480
  8
0
 10
24.277624
 20
10.977447
 30
0.0
  0
VERTEX
  5
481
  8
0
 10
24.261665
 20
10.981015
 30
0.0
  0
VERTEX
  5
482
  8
0
 10
24.167606
 20
10.961468
 30
0.0
  0
SEQEND
  5
483
  8
0
  0
CIRCLE
  5
398
  8
0
 10
33.515189
 20
9.897053
 30
0.0
 40
0.8
  0
CIRCLE
  5
399
  8
0
 10
33.515189
 20
9.897053
 30
0.0
 40
0.7
  0
CIRCLE
  5
39A
  8
0
 10
33.515189
 20
9.897053
 30
0.0
 40
0.75
  0
ARC
  5
39B
  8
0
 10
29.369757
 20
10.745422
 30
0.0
 40
0.325
 50
14.273352
 51
20.342033
  0
LINE
  5
39C
  8
0
 10
32.310684
 20
12.692548
 30
0.0
 11
36.310684
 21
8.692548
 31
0.0
  0
LINE
  5
39D
  8
0
 10
36.310684
 20
12.692548
 30
0.0
 11
32.310684
 21
8.692548
 31
0.0
  0
CIRCLE
  5
39E
  8
0
 10
29.369757
 20
10.745422
 30
0.0
 40
0.1205
  0
CIRCLE
  5
39F
  8
0
 10
33.515189
 20
9.897053
 30
0.0
 40
0.1205
  0
LINE
  5
3A0
  8
0
 10
29.059262
 20
10.475803
 30
0.0
 11
29.100918
 21
10.562801
 31
0.0
  0
LINE
  5
3A1
  8
0
 10
29.100137
 20
10.434927
 30
0.0
 11
29.187135
 21
10.476584
 31
0.0
  0
LINE
  5
3A2
  8
0
 10
34.068708
 20
10.474648
 30
0.0
 11
34.052359
 21
10.474293
 31
0.0
  0
LINE
  5
3A3
  8
0
 10
29.0589
 20
10.459125
 30
0.0
 11
29.083459
 21
10.434565
 31
0.0
  0
LINE
  5
3A4
  8
0
 10
29.0589
 20
10.459125
 30
0.0
 11
29.059262
 21
10.475803
 31
0.0
  0
LINE
  5
3A5
  8
0
 10
29.083459
 20
10.434565
 30
0.0
 11
29.100137
 21
10.434927
 31
0.0
  0
LINE
  5
3A6
  8
0
 10
34.052359
 20
10.474293
 30
0.0
 11
33.965711
 21
10.432805
 31
0.0
  0
LINE
  5
3A7
  8
0
 10
34.068708
 20
10.474648
 30
0.0
 11
34.092784
 21
10.450573
 31
0.0
  0
LINE
  5
3A8
  8
0
 10
34.092784
 20
10.450573
 30
0.0
 11
34.092429
 21
10.434223
 31
0.0
  0
LINE
  5
3A9
  8
0
 10
34.092429
 20
10.434223
 30
0.0
 11
34.05094
 21
10.347575
 31
0.0
  0
LINE
  5
3AA
  8
0
 10
29.275315
 20
10.345194
 30
0.0
 11
29.332989
 21
10.422509
 31
0.0
  0
LINE
  5
3AB
  8
0
 10
29.220126
 20
10.362392
 30
0.0
 11
29.216581
 21
10.458783
 31
0.0
  0
LINE
  5
3AC
  8
0
 10
29.227556
 20
10.347456
 30
0.0
 11
29.220126
 21
10.362392
 31
0.0
  0
LINE
  5
3AD
  8
0
 10
29.227556
 20
10.347456
 30
0.0
 11
29.260716
 21
10.337123
 31
0.0
  0
LINE
  5
3AE
  8
0
 10
29.260716
 20
10.337123
 30
0.0
 11
29.275315
 21
10.345194
 31
0.0
  0
LINE
  5
3AF
  8
0
 10
29.472128
 20
10.347148
 30
0.0
 11
29.487266
 21
10.44241
 31
0.0
  0
LINE
  5
3B0
  8
0
 10
29.415268
 20
10.336728
 30
0.0
 11
29.367334
 21
10.420432
 31
0.0
  0
LINE
  5
3B1
  8
0
 10
29.428788
 20
10.326956
 30
0.0
 11
29.415268
 21
10.336728
 31
0.0
  0
LINE
  5
3B2
  8
0
 10
29.428788
 20
10.326956
 30
0.0
 11
29.462952
 21
10.333217
 31
0.0
  0
LINE
  5
3B3
  8
0
 10
29.462952
 20
10.333217
 30
0.0
 11
29.472128
 21
10.347148
 31
0.0
  0
LINE
  5
3B4
  8
0
 10
29.64549
 20
10.440343
 30
0.0
 11
29.614623
 21
10.531727
 31
0.0
  0
LINE
  5
3B5
  8
0
 10
29.599985
 20
10.404692
 30
0.0
 11
29.518642
 21
10.456531
 31
0.0
  0
LINE
  5
3B6
  8
0
 10
29.616498
 20
10.402322
 30
0.0
 11
29.599985
 21
10.404692
 31
0.0
  0
LINE
  5
3B7
  8
0
 10
29.616498
 20
10.402322
 30
0.0
 11
29.643839
 21
10.423743
 31
0.0
  0
LINE
  5
3B8
  8
0
 10
29.643839
 20
10.423743
 30
0.0
 11
29.64549
 21
10.440343
 31
0.0
  0
LINE
  5
3B9
  8
0
 10
29.755684
 20
10.603427
 30
0.0
 11
29.685884
 21
10.67
 31
0.0
  0
LINE
  5
3BA
  8
0
 10
29.731959
 20
10.550713
 30
0.0
 11
29.635843
 21
10.558812
 31
0.0
  0
LINE
  5
3BB
  8
0
 10
29.747682
 20
10.556288
 30
0.0
 11
29.731959
 21
10.550713
 31
0.0
  0
LINE
  5
3BC
  8
0
 10
29.747682
 20
10.556288
 30
0.0
 11
29.761936
 21
10.587961
 31
0.0
  0
LINE
  5
3BD
  8
0
 10
29.761936
 20
10.587961
 30
0.0
 11
29.755684
 21
10.603427
 31
0.0
  0
LINE
  5
3BE
  8
0
 10
29.777467
 20
10.799041
 30
0.0
 11
29.684725
 21
10.825551
 31
0.0
  0
LINE
  5
3BF
  8
0
 10
29.780957
 20
10.741339
 30
0.0
 11
29.692086
 21
10.703844
 31
0.0
  0
LINE
  5
3C0
  8
0
 10
29.792288
 20
10.753583
 30
0.0
 11
29.780957
 21
10.741339
 31
0.0
  0
LINE
  5
3C1
  8
0
 10
29.792288
 20
10.753583
 30
0.0
 11
29.790191
 21
10.788252
 31
0.0
  0
LINE
  5
3C2
  8
0
 10
29.790191
 20
10.788252
 30
0.0
 11
29.777467
 21
10.799041
 31
0.0
  0
LINE
  5
3C3
  8
0
 10
29.705849
 20
10.982371
 30
0.0
 11
29.611409
 21
10.962745
 31
0.0
  0
LINE
  5
3C4
  8
0
 10
29.735754
 20
10.932901
 30
0.0
 11
29.674488
 21
10.8584
 31
0.0
  0
LINE
  5
3C5
  8
0
 10
29.740097
 20
10.949008
 30
0.0
 11
29.735754
 21
10.932901
 31
0.0
  0
LINE
  5
3C6
  8
0
 10
29.740097
 20
10.949008
 30
0.0
 11
29.722129
 21
10.978731
 31
0.0
  0
LINE
  5
3C7
  8
0
 10
29.722129
 20
10.978731
 30
0.0
 11
29.705849
 21
10.982371
 31
0.0
  0
LINE
  5
3C8
  8
0
 10
29.557236
 20
11.11142
 30
0.0
 11
29.482735
 21
11.050154
 31
0.0
  0
LINE
  5
3C9
  8
0
 10
29.606706
 20
11.081514
 30
0.0
 11
29.58708
 21
10.987075
 31
0.0
  0
LINE
  5
3CA
  8
0
 10
29.603066
 20
11.097794
 30
0.0
 11
29.606706
 21
11.081514
 31
0.0
  0
LINE
  5
3CB
  8
0
 10
29.603066
 20
11.097794
 30
0.0
 11
29.573343
 21
11.115762
 31
0.0
  0
LINE
  5
3CC
  8
0
 10
29.573343
 20
11.115762
 30
0.0
 11
29.557236
 21
11.11142
 31
0.0
  0
LINE
  5
3CD
  8
0
 10
29.365674
 20
11.156622
 30
0.0
 11
29.328178
 21
11.067752
 31
0.0
  0
LINE
  5
3CE
  8
0
 10
29.423375
 20
11.153132
 30
0.0
 11
29.449885
 21
11.06039
 31
0.0
  0
LINE
  5
3CF
  8
0
 10
29.412587
 20
11.165856
 30
0.0
 11
29.423375
 21
11.153132
 31
0.0
  0
LINE
  5
3D0
  8
0
 10
29.412587
 20
11.165856
 30
0.0
 11
29.377917
 21
11.167953
 31
0.0
  0
LINE
  5
3D1
  8
0
 10
29.377917
 20
11.167953
 30
0.0
 11
29.365674
 21
11.156622
 31
0.0
  0
LINE
  5
3D2
  8
0
 10
29.175047
 20
11.107624
 30
0.0
 11
29.183147
 21
11.011508
 31
0.0
  0
LINE
  5
3D3
  8
0
 10
29.227762
 20
11.131349
 30
0.0
 11
29.294334
 21
11.06155
 31
0.0
  0
LINE
  5
3D4
  8
0
 10
29.212296
 20
11.137602
 30
0.0
 11
29.227762
 21
11.131349
 31
0.0
  0
LINE
  5
3D5
  8
0
 10
29.212296
 20
11.137602
 30
0.0
 11
29.180623
 21
11.123347
 31
0.0
  0
LINE
  5
3D6
  8
0
 10
29.180623
 20
11.123347
 30
0.0
 11
29.175047
 21
11.107624
 31
0.0
  0
LINE
  5
3D7
  8
0
 10
29.029027
 20
10.97565
 30
0.0
 11
29.080866
 21
10.894308
 31
0.0
  0
LINE
  5
3D8
  8
0
 10
29.064677
 20
11.021155
 30
0.0
 11
29.156062
 21
10.990289
 31
0.0
  0
LINE
  5
3D9
  8
0
 10
29.048077
 20
11.019504
 30
0.0
 11
29.064677
 21
11.021155
 31
0.0
  0
LINE
  5
3DA
  8
0
 10
29.048077
 20
11.019504
 30
0.0
 11
29.026657
 21
10.992163
 31
0.0
  0
LINE
  5
3DB
  8
0
 10
29.026657
 20
10.992163
 30
0.0
 11
29.029027
 21
10.97565
 31
0.0
  0
LINE
  5
3DC
  8
0
 10
28.961063
 20
10.790934
 30
0.0
 11
29.044766
 21
10.742999
 31
0.0
  0
LINE
  5
3DD
  8
0
 10
28.971483
 20
10.847794
 30
0.0
 11
29.066745
 21
10.862932
 31
0.0
  0
LINE
  5
3DE
  8
0
 10
28.957552
 20
10.838617
 30
0.0
 11
28.971483
 21
10.847794
 31
0.0
  0
LINE
  5
3DF
  8
0
 10
28.957552
 20
10.838617
 30
0.0
 11
28.951291
 21
10.804454
 31
0.0
  0
LINE
  5
3E0
  8
0
 10
28.951291
 20
10.804454
 30
0.0
 11
28.961063
 21
10.790934
 31
0.0
  0
LINE
  5
3E1
  8
0
 10
28.986726
 20
10.595791
 30
0.0
 11
29.083118
 21
10.592246
 31
0.0
  0
LINE
  5
3E2
  8
0
 10
28.969529
 20
10.650981
 30
0.0
 11
29.046844
 21
10.708655
 31
0.0
  0
LINE
  5
3E3
  8
0
 10
28.961457
 20
10.636381
 30
0.0
 11
28.969529
 21
10.650981
 31
0.0
  0
LINE
  5
3E4
  8
0
 10
28.961457
 20
10.636381
 30
0.0
 11
28.97179
 21
10.603221
 31
0.0
  0
LINE
  5
3E5
  8
0
 10
28.97179
 20
10.603221
 30
0.0
 11
28.986726
 21
10.595791
 31
0.0
  0
ARC
  5
3E6
  8
0
 10
29.369757
 20
10.745422
 30
0.0
 40
0.325
 50
41.96566
 51
48.03434
  0
ARC
  5
3E7
  8
0
 10
29.369757
 20
10.745422
 30
0.0
 40
0.325
 50
69.657967
 51
75.726648
  0
ARC
  5
3E8
  8
0
 10
29.369757
 20
10.745422
 30
0.0
 40
0.325
 50
97.350275
 51
103.418956
  0
ARC
  5
3E9
  8
0
 10
29.369757
 20
10.745422
 30
0.0
 40
0.325
 50
125.042583
 51
131.111263
  0
ARC
  5
3EA
  8
0
 10
29.369757
 20
10.745422
 30
0.0
 40
0.325
 50
152.73489
 51
158.803571
  0
ARC
  5
3EB
  8
0
 10
29.369757
 20
10.745422
 30
0.0
 40
0.325
 50
180.427198
 51
186.495879
  0
ARC
  5
3EC
  8
0
 10
29.369757
 20
10.745422
 30
0.0
 40
0.325
 50
208.119506
 51
214.188186
  0
ARC
  5
3ED
  8
0
 10
29.369757
 20
10.745422
 30
0.0
 40
0.325
 50
235.811814
 51
241.880494
  0
ARC
  5
3EE
  8
0
 10
29.369757
 20
10.745422
 30
0.0
 40
0.325
 50
263.504121
 51
269.572802
  0
ARC
  5
3EF
  8
0
 10
29.369757
 20
10.745422
 30
0.0
 40
0.325
 50
291.196429
 51
297.26511
  0
ARC
  5
3F0
  8
0
 10
29.369757
 20
10.745422
 30
0.0
 40
0.325
 50
318.888737
 51
324.957417
  0
ARC
  5
3F1
  8
0
 10
29.369757
 20
10.745422
 30
0.0
 40
0.325
 50
346.581044
 51
352.649725
  0
ENDSEC
  0
EOF
